PrimaNota.ru - самый крупный в мире бесплатный архив песенных текстов, аккордов, табулатур и нот


Toto - The Other Side - аккорды и текст, видео

Регистрация Запомнить меня
Войти через:  Facebook Google Twitter Vk Yandex Mail.ru

Toto - The Other Side - аккорды и текст, видео

Печатать
Просмотров: 120
Авторы: William Sherwood, Rory Kaplan, David Paich

The Other Side
Toto
-------------------------------------------------------------------------------
                             Toto - The Other Side
-------------------------------------------------------------------------------
Tabbed by: Mathias Loken
E-mail: matloken@gmail.com

Tuning: Standard

Gm  Eb  F  Ab  Gm  D
Gm  Eb  F  Ab  Gm  C

    [0:15]               [0:21]
e|------------------------------------------------|
B|----8~~~---6~~~-----------6/8\6-----------------|
G|--------------------------------5/7\5~~~--------|
D|------------------------------------------------|
A|------------------------------------------------|
E|------------------------------------------------|

Gm     Cm              F
   The waiting game is over
Ab          Gm
No need for pretending
        Dm       D
We were meant to be
Gm      Cm           F
   It's only getting stronger
    Ab              Gm
The love I feel for you
     C
It's no mystery

    [0:49]
e|------------------------------|
B|---------6--------------------|
G|-----5/7---7--7\5\3-----------|
D|--------------------5~~~------|
A|------------------------------|
E|------------------------------|


Gm             Cm               F
   I've got to find some way to tell you
           Ab              Gm
Though our world seems far apart
        Dm            D
It just don't have to be
Gm     Cm               F
   The time has come to testify
        Ab                 Gm
All the feelings I've been holding back
     C
It's time to set them free


          Gm       Eb           Bb
I've been watching you from the other side
          Gm         Eb       Bb        
I've been wanting to hold you through the night
            Gm      Eb         Bb
I've got to find my way to the other side
          Gm       Eb          F 
I want to hold you tonight and forever


Gm     Cm            F
   The moment that I saw you
  Ab             Gm
I knew inside my heart
       Dm                D
All my dreams would come true
Gm           Cm                F
   I know it took some time to realize
  Ab            Gm
A love we can't deny
     C
I've got to see it through


          Gm       Eb           Bb
I've been watching you from the other side
          Gm         Eb       Bb
I've been wanting to hold you through the night
            Gm      Eb         Bb
I've got to find my way to the other side
          Gm       Eb          F
I want to hold you tonight and forever


Ab           Eb             Bb
   I want to be the one who loves you
        F
Now and forever
Ab           Eb            Gm
   I want to take my place beside you
Ab           Eb            Bb
   I want to be the one to hold you
        F
Now and forever
       Cm                    Eb    F
I will meet you there on the other side


[Instrumental break]

Gm  Cm  F  Ab  Gm  Dm  D
Gm  Cm  F  Ab  Gm  C

   [2:55] Solo
e|--------------------------------------------------|
B|--------------------------------------------------|
G|-------3---------2~--------3-----3------7---------|
D|------------------------------------3/5---5-4~----|
A|---3/5---5-6-5\3-----3h5/6---6-5------------------|
E|--------------------------------------------------|

e|--------------------------------------------------|
B|--------------------------------------------------|
G|-------3----------2~-------3-----3------5---------|
D|------------------------------------1/3---3-2~----|
A|---3/5---5-6-5\3-----3h5/6---6-5------------------|
E|--------------------------------------------------|

          Gm       Eb           Bb
I've been watching you from the other side
          Gm         Eb       Bb
I've been wanting to hold you through the night
            Gm      Eb         Bb
I've got to find my way to the other side
          Gm       Eb          F
I want to hold you tonight and forever

[repeats 2x]


Bb  Gm  Eb  Bb
Gm  Bb  Gm  Eb  F  Gm 

    [4:11]
e|---------------------------------------------------------------------------|
B|-----6/8~--8--8\6--6-6-----------------------------------------------------|
G|-----------------------7--5-7/10~--7p5h7-----------------------------------|
D|---------------------------------------------------------------------------|
A|---------------------------------------------------------------------------|
E|---------------------------------------------------------------------------|

e|---------------------------------------------------------------------------|
B|-----6/8~--6---6/8~----6~-8----------6/8~--6-6-----6----------3-4-3--------|
G|-------------7--------------7\5~------------7--7p5---7------3-------5~~----|
D|--------------------------------------------------------3h5----------------|
A|---------------------------------------------------------------------------|
E|---------------------------------------------------------------------------|


************************************

| /   slide up
| \   slide down
| h   hammer-on
| p   pull-off
| ~   vibrato
| +   harmonic
| x   Mute note
| b   Bend
| pb  Pre-bend
| br  Bend release
| pbr Pre-bend release
| brb Bend release bend

************************************
Добавлено: 02.08.2015
Другие материалы по этой песне:
  • Аккорды и текст

Страница создана 24.02.2012
http://primanota.ru/toto/the-other-side-chords.htm
Привет, Гость.
Предлагаем пройти революционный курс по гитаре.
Подарок от PrimaNota.Ru, забирай!