PrimaNota.ru - самый крупный в мире бесплатный архив песенных текстов, аккордов, табулатур и нот


Toto - Orphan - аккорды и текст, видео

Регистрация Запомнить меня
Войти через:  Facebook Google Twitter Vk Yandex Mail.ru

Toto - Orphan - аккорды и текст, видео

Печатать
Просмотров: 40
Orphan
Toto
-------------------------------------------------------------------------
                             Orphan - Toto
-------------------------------------------------------------------------
Tabbed by: progmetalhead96
E-mail: metalcarsen@hotmail.it

Tuning: Standard

6/8
Intro:
    D           A          Bm            G
e|------------------------------------------------------------------|
B|------------------------------------------------------------------|
G|------00----------00----------00------------00--------------------|
D|---44---44------44--44------44--44--------44--44------------------|
A|-55-----------00----------22--------------------------------------|
E|----------------------------------------33------------------------|
play this riff during the intro and the chorus
D                         A
You're never alone in the world
Bm                        G
You're never alone in the world
D                                A
If you believe in each and every one of us
Bm                        G
You're never alone in the world

Verse: (no guitar)
Bm              D  
I was born in a lost and found
A                    Em
An orphan raised in the underground
Bm              D 
Then one day I opened up my eyes
A                    Em
Looked around and I realized

Pre-chorus:
   Bm           D            A             Em
e|-7---77-------5--55--------2--00---------0--00--------------------------------|
B|-8---77-------5--77--------2--22---------0--00--------------------------------|
G|-7---77-------7--77--------2--22---------0--00--------------------------------|
D|-9---99-------7--77--------2--22---------2--22--------------------------------|
A|-9---99-------5--55--------0--00---------2--22---------------- ---------------|
E|-7---77----------------------------------0--00--------------------------------|

Bm
No mother...
D
No father...
A
No sister...
Em
And no brother
Bm
So I cried out
D
To the heavens
A                             Em
"Could this be all there really is?" then someone said...

Chorus:
D                         A
You're never alone in the world
Bm                        G
You're never alone in the world
D                                A
If you believe in each and every one of us
Bm                        G
You're never alone in the world

Verse:  (palm mute)
D                  A
Someone said we're one family
Bm                       G
How can that be with all this poverty?
D                  A
Time to reach out and make a start
Bm                         G
Hold each others hands and lift each others hearts

Pre-chorus:

Bm                D
If you're thirsty drink the water from my hand
A                Em 
If you're hungry take my bread I'll understand
Bm                D
If you're lonely you can always share my bed 
A                             Em
"Could this be all there really is?" then someone said

Chorus:
You're never alone in the world
You're never alone in the world baby
If you believe in each and every one of us
No
Bm                       C
You're never alone in the world baby

 
Bridge:
e|----------------------------------------------------------------|
B|12121212121212-12-12-12-----------12121212121212-12-12-12-------|
G|11111111111111-9--12-9-------x3---11111111111111-12-11-9--------|
D|----------------------------------------------------------------|
A|----------------------------------------------------------------|
E|----------------------------------------------------------------|  

Pre-chorus:
If you're thirsty drink the water from my hand
If you're hungry take my bread I'll understand
If you're lonely you can always share my bed
"Could this be all there really is?" then someone said

Chorus:
You're never alone in the world
You're never alone in the world baby
Never alone
If you believe in each and every one of us
You and me
You're never alone in the world baby

D                 Em
If you're thirsty drink the water from my hand
F#m                   G
If you're hungry take my bread I'll understand
D
You're never alone in the...
A
You're never alone in the...
Bm                            G
"Could this be all there really is?" then someone said

Solo (coming soon)
D A Bm C
Добавлено: 14.11.2015
Другие материалы по этой песне:

Страница создана 14.11.2015
http://primanota.ru/toto/orphan-chords.htm
Привет, Гость.
Предлагаем пройти революционный курс по гитаре.
Подарок от PrimaNota.Ru, забирай!