PrimaNota.ru - самый крупный в мире бесплатный архив песенных текстов, аккордов, табулатур и нот


Toto - Mad About You - аккорды и текст, видео

Регистрация Запомнить меня
Войти через:  Facebook Google Twitter Vk Yandex Mail.ru

Toto - Mad About You - аккорды и текст, видео

Печатать
Просмотров: 69
Новый альбом группы 'Черный Кузнец' по культовому сериалу 'Сверхъестественное'!
Mad About You
Toto
Name: Mike M

Artist: Toto
Title: Mad About You

Standard Tuning

INTRO
   
    E   
E-|----------------------------------------------------------------------|
B-|---------------5-4---------------5-4---------------5-4----------------|
G-|-4--4--4--4--4-----4--4--4--4--4-----4--4--4--4--4-----4--4--4--4--4--|
D-|----------------------------------------------------------------------|
A-|----------------------------------------------------------------------|
E-|----------------------------------------------------------------------|

    E   
E-|-------------------------------------|
B-|-9--7--5------------9--7--5----------|
G-|----------8--6--4-----------8--6--4--|
D-|-------------------------------------|
A-|-------------------------------------|
E-|-------------------------------------|

   E   
E-|-------------------------------|
B-|---------------5-4-------------|
G-|-4--4--4--4--4-----4--4--4--4--|
D-|-------------------------------|
A-|-------------------------------|
E-|-------------------------------|

VERSE 1

         E
There's something I must say
C#m
Something I must do
   E
I planned it all this way
  C#m
Designed it just for you
        A
Do you wanna be with me
               E
Be with me at all?
        A                 C#m
Do you have to be so cool
     E
Your gentle touch maneuvered me
    A                      B
But all the time I always knew

CHORUS

E
I'm really mad about you
                              B
There's nothing bad about our love
F#m                     C#m
I'm giving you the only heart I have
           E              A          B
But I'm afraid tonight it won't be enough

E

VERSE 2
    E
Can we go on this way?
         C#m
There's nothing left to prove
     E
It's not another game
     C#m
Or another simple move
   A
Do you believe in me
                 E
Believe in me at all?
         A                C#m
Are you telling me the truth?
   E                              A
Or is it just imagination or the perfect dream
                   B
That I'm here with you

CHORUS

E
I'm really mad about you
                              B
There's nothing bad about our love
F#m                     C#m
I'm giving you the only heart I have
           E              A          B
But I'm afraid tonight it won't be enough

SOLO

E C#m E C#m

        A
Do you wanna be with me
               E
Be with me at all?
        A                 C#m
Do you have to be so cool
     E
Your gentle touch maneuvered me
    A                      B
But all the time I always knew

CHORUS

E
I'm really mad about you
                              B
There's nothing bad about our love
F#m                     C#m
I'm giving you the only heart I have
           E              A          B
But I'm afraid tonight it won't be enough
E
I'm really mad about you
                              B
There's nothing bad about our love
F#m                  C#m
I never had a broken heart before
       G#m                   A
But I know you'll never tear
            B
Tear mine apart

E

Outro (pattern is in the intro)


Thanks for viewing!
Добавлено: 28.12.2017
Другие материалы по этой песне:
  • Аккорды и текст

Страница создана 17.07.2012
http://primanota.ru/toto/mad-about-you-chords.htm
Привет, Гость.
Предлагаем пройти революционный курс по гитаре.
Подарок от PrimaNota.Ru, забирай!