PrimaNota.ru - самый крупный в мире бесплатный архив песенных текстов, аккордов, табулатур и нот


Toto - I'll Supply The Love - текст песни, таба, видео

Регистрация Запомнить меня
Войти через:  Facebook Google Twitter Vk Yandex Mail.ru

Toto - I'll Supply The Love - текст песни, таба, видео

Печатать
Просмотров: 156
C#m B    A      A  B  C#m  B    A
e|---------------|----------------------|
B|--5--4-4--2-2--|-2--4--5-5--4-4--2-2--|
G|--4--4-4--2-2--|-2--4--4-4--4-4--2-2--|
D|--6--4-4--2-2--|-2--4--6-6--4-4--2-2--|
A|---------------|----------------------|
E|---------------|----------------------|


C#m    B       A      A  B C#m     B       A
You supply the night, baby I'll supply the love 
You supply the night, baby I'll supply the love 

    C#m
     H    >        >         >         >  >
e|-------------------------------------------|
B|--4-(5)-5-x-x--4-5--x-x--4-5--x-x--4-5--4--|
G|--4-(4)-4-x-x--4-4--x-x--4-4--x-x--4-4--4--|
D|--4-(6)-6-x-x--4-6--x-x--4-6--x-x--4-6--4--|
A|--4-(4)-4-x-x--4-4--x-x--4-4--x-x--4-4--4--|
E|-------------------------------------------|


I see a horseman in the sky it makes me turn and wonder why 
I hear the same fourteen reasons must be the changin' of the seasons 

Chorus

I met the girl across the sea she saved my life and came to me 
A tender night of dark persuasion could be my first and last occasion 

Chorus


Bridge:
      C#m  D#m  E   G#m  D#m          F#m        C#m
                                b
e|--------------------------------------------------|
B|--------------------------------------------------|
G|----6----8----9----13---12--11-(12)-11--11--9--6--|
D|-6------------------------------------------------|
A|--------------------------------------------------|
E|--------------------------------------------------|


     C#m  D#m  E  G#m  D#m        F#m         A  B
                             b
e|--------------------------------------------------|
B|--------------------------------------------------|
G|----6----8---9--13---12--11-(12)-11--11--9--6--8--|
D|-6------------------------------------------------|
A|--------------------------------------------------|
E|--------------------------------------------------|

Chorus

    p.m.------------------------|  >  >  >
e|------------------------------------------|
B|------------------------------------------|
G|---------------------------------6--6--8--|
D|-----------------------1-1-1--2--4--4--6--|
A|--0-0-0--2-2-2--4-4-4---------------------|
E|------------------------------------------|



email me to mrrugbyman@gmail.com any question
Добавлено: 01.10.2013
Другие материалы по этой песне:

Страница создана 22.03.2012
http://primanota.ru/toto/ill-supply-the-love-chords.htm
Привет, Гость.
Предлагаем пройти революционный курс по гитаре.
Подарок от PrimaNota.Ru, забирай!