PrimaNota.ru - самый крупный в мире бесплатный архив песенных текстов, аккордов, табулатур и нот


Totalt Javla Morker - Livstid Pa Golvet - таба, видео

Регистрация Запомнить меня
Войти через:  Facebook Google Twitter Vk Yandex Mail.ru

Totalt Javla Morker - Livstid Pa Golvet - таба, видео

Печатать
Просмотров: 74
Title:	Livstid på golvet
Artist:	Totalt Jävla Mörker
Record:	Industri betong och sålda själar

Tuning:
Guitar: Dropped D (DADGBe)
Bass: Standard (EADG)

h = hammer on
/ = slide down

Intro:
Bass:
G|----------------------------------------------------------------|
D|----------------1-11-11---------------------------------1-11-11-|
A|------------------------2-22-22-----------------3-33-33---------|
E|0-00-00-0-00-00-----------------0-00-00-0-00-00-----------------|

Guitar:
e|----------------------------------------------------------------|
B|----------------------------------------------------------------|
G|----------------------------------------------------------------|
D|----------------------------------------------------------------|
A|--------------------------------------------------------14/-----|
D|--------------------------------------------------------14/-----|


Verse:
Bass:
G|----------------------------------------------------------------|
D|----------------1-11-11---------------------------------1-11-11-|
A|------------------------2-22-22-----------------3-33-33---------|
E|0-00-00-0-00-00-----------------0-00-00-0-00-00-----------------|

Guitar:
e|----------------------------------------------------------------|
B|----------------------------------------------------------------|
G|----------------8-88-88-4-44-44-----------------5-55-55-8-88-88-|
D|----------------6-66-66-2-22-22-----------------3-33-33-6-66-66-|
A|2-22-22-2-22-22-----------------2-22-22-2-22-22-----------------|
D|2-22-22-2-22-22-----------------2-22-22-2-22-22-----------------|


Chorus:
Bass:
   h       h       h               h       h       h
G|----------------------------------------------------------------|
D|------------------------6--5------------------------------------|
A|5777-77-5777-77-5777-77-------8-5777-77-5777-77-5777-77---------|
E|--------------------------------------------------------7--5--3-|

Guitar:
   h       h       h               h       h       h
e|----------------------------------------------------------------|
B|----------------------------------------------------------------|
G|----------------------------------------------------------------|
D|----------------------------------------------------------------|
A|0222-22-0222-22-0222-22-6--5--3-0222-22-0222-22-0222-22-9--7--5-|
D|0222-22-0222-22-0222-22-6--5--3-0222-22-0222-22-0222-22-9--7--5-|

     
Добавлено: 14.08.2013
Вам также может быть интересно:
Другие материалы по этой песне:
  • Аккорды и текст

Страница создана 14.08.2013
http://primanota.ru/totalt-javla-morker/livstid-pa-golvet-chords.htm
Привет, Гость.
Предлагаем пройти революционный курс по гитаре.
Подарок от PrimaNota.Ru, забирай!