PrimaNota.ru - самый крупный в мире бесплатный архив песенных текстов, аккордов, табулатур и нот


Totalt Javla Morker - Brott Utan Straff - таба, видео

Регистрация Запомнить меня
Войти через:  Facebook Google Twitter Vk Yandex Mail.ru

Totalt Javla Morker - Brott Utan Straff - таба, видео

Печатать
Просмотров: 62
Title:	Brott utan straff
Artist:	Totalt Jävla Mörker
Record:	Split 7'

Intro:
e-----------------------------------------------------------------|
B-----------------------------------------------------------------|
G-----------------------------------------------------------------|
D-----------------------------------------------------------------|
A-2-------------------------------2-------------------------------|
E-0-------------------------------0-------------------------------|


Verse:
  1   2   3   4   1   2   3   4       1   2   3   4   1   2   3   4
e|--------------------------------|  |--------------------------------|
B|-------------------------------*|  |--------------------------------|
G|--------------------------------|  |--------------------------------|
D|--------------------9-9---1010--|X3|--------------------7-7---6-6---|
A|77777777777777777---7-7---8-8--*|  |77777777777777777---5-5---4-4---|
E|55555555555555555---------------|  |55555555555555555---------------|

  1   2   3   4   1   2   3   4       1   2   3   4   1   2   3   4
e|--------------------------------|  |--------------------------------|
B|-------------------------------*|  |--------------------------------|
G|--------------------------------|  |--------------------------------|
D|--------------------4-4---5-5---|X3|--------------------------------|
A|22222222222222222---2-2---3-3--*|  |22222222222222222---7-7---6-6---|
E|00000000000000000---------------|  |00000000000000000---5-5---4-4---|


Chorus:
  1   2   3   4   1   2   3   4   1   2   3   4   1   2   3   4
e|----------------------------------------------------------------|
B|----------------------------------------------------------------|
G|----------------------------------------------------------------|
D|----------------------------------------------------------------|
A|444444442--4--2-5555555555555555444444442--4--2---7---6---5---4-|
E|222222220--2--0-3333333333333333222222220--2--0---5---4---3---2-|


Slow part:
  1   2   3   4   1   2   3   4   1   2   3   4   1   2   3   4
e|----------------------------------------------------------------|
B|----------------------------------------------------------------|
G|----------------------------------------------------------------|
D|----------------------------------------------------------------|
A|4-----4-2--4--2-5---------------4-----4-2--4--2---7---6---5---4-|
E|2-----2-0--2--0-3---------------2-----2-0--2--0---5---4---3---2-|

     
Добавлено: 09.09.2013
Вам также может быть интересно:
Другие материалы по этой песне:
  • Аккорды и текст

Страница создана 09.09.2013
http://primanota.ru/totalt-javla-morker/brott-utan-straff-chords.htm
Привет, Гость.
Предлагаем пройти революционный курс по гитаре.
Подарок от PrimaNota.Ru, забирай!