PrimaNota.ru - самый крупный в мире бесплатный архив песенных текстов, аккордов, табулатур и нот


Totally Enormous Extinct Dinosaurs - Garden - аккорды и текст, видео

Регистрация Запомнить меня
Войти через:  Facebook Google Twitter Vk Yandex Mail.ru

Totally Enormous Extinct Dinosaurs - Garden - аккорды и текст, видео

Печатать
Просмотров: 23
Garden
Totally Enormous Extinct Dinosaurs
Garden by Totally Enormous Extinct Dinosaurs

The song also works well transposed up to Capo 2, 
making it less work with all of the bar chords.

The riffs are very approximate.
Please contribute if you can tab them better, this is a beauty of a song and I'd love to play it better!

Xylophone
e|----------------------------------------------------|
B|----------------------------------------------------|
G|-3--5--3---5--3---5--3----3--5--3---5--3---5--3-----|
D|--------3------3------3----------3------3------3----|
A|----------------------------------------------------|
E|----------------------------------------------------|


Bass
G|---------------------------------------------------------------|
D|---------------------------------------------------------------|
A|-1--1--1--1--1---3--3--3--3--3--5--5--5--5--5---5--5--5--5--5--|
E|---------------------------------------------------------------|

G|---------------------------------------------------------------|
D|---------------------------------------------------------------|
A|-3--3--3--3--3---1--1--1--1--1--3--3--3--3--3---3--3--3--3--3--|
E|---------------------------------------------------------------|



Link: Gm Cm Dm Cm (x2)

Gm7                 Cm
  Looking over your shoulder girl,
    Dm                       Cm
Thinking you should have let me have it all.
Gm7                 Cm
  If you're coming around again
     Dm                        Cm
Tell me how you'd feel cause I need to know - Link

Chorus:
Gm7                 Cm
   I could be your love again
Dm                  Cm
  If you just let me in.
Gm7                 Cm
  We don't have to work it out
        Dm         Cm
Cause I already know


Gm7                 Cm
  Looking over your shoulder girl,
    Dm                       Cm
Thinking you should have let me have it all.
Gm7                 Cm
  If you're coming around again
     Dm                        Cm
Tell me how you'd feel cause I need to know (x2)


Link, Chorus


Gm7        Cm    Bb
Walking in my silver blues,
Gm7         Cm      Eb                   
Tracked the dust to you.   
Gm7 Cm         Bb 
I believed in something too.
Gm7      Cm        Eb     
One more life with you (x2) 

Link x4
Добавлено: 06.04.2016
Другие материалы по этой песне:
  • Аккорды и текст

Страница создана 06.04.2016
http://primanota.ru/totally-enormous-extinct-dinosaurs/garden-chords.htm
Привет, Гость.
Предлагаем пройти революционный курс по гитаре.
Подарок от PrimaNota.Ru, забирай!