PrimaNota.ru - самый крупный в мире бесплатный архив песенных текстов, аккордов, табулатур и нот


Tose Proeski - Najdraga Moja - аккорды и текст, таба, видео

Регистрация Запомнить меня
Войти через:  Facebook Google Twitter Vk Yandex Mail.ru

Tose Proeski - Najdraga Moja - аккорды и текст, таба, видео

Печатать
Просмотров: 162
Уроки эстрадного вокала в Санкт-Петербурге
Najdraga Moja
Tose Proeski
[Verse]

         Cm
Најдрага моја
     Gm
Кога горки зборови
         Cm
Течат од усни
      Gm
Тонат сите бродови
F        Eb    Gm
Страст неразумна

         Cm
Рака под рака
         Gm
Бевме до лудост ничии
          Cm
Лесно без мака
Gm
Верни и неверни
   Gm     F    Eb
Од глупости и суета
Cm   Adim   D
Не ни успеа

[Chorus]

Gm    Cm
Верувај
F          Bb
Ништо намерно
Gm   Cm            D         Gm
Не сакав да ни се случи најлошо
Gm    Cm
Гордоста
   F         Bb
Нe донесе до дно
Fm          Cm
Можам да не те сакам
Fm        G 
Не и да заборавам
     Fm           G           Cm
А за тоа ти си ми должна до крај

[Verse]

         Cm
Рака под рака
         Gm
Бевме до лудост ничии
          Cm
Лесно без мака
Gm
Верни и неверни
F        Eb    Gm
Страст неразумна

        Cm
Вечерва морам
      Gm
Бесот да го потрошам
        Cm
Со било која
    Gm
Јас да се утешам
   Gm     F    Eb
Од глупости и суета
Cm   Adim   D
Не ни успеа

[Chorus]

Gm    Cm
Верувај
F          Bb
Ништо намерно
Gm   Cm            D         Gm
Не сакав да ни се случи најлошо
Gm    Cm
Гордоста
   F         Bb
Нe донесе до дно
Fm          Cm
Можам да не те сакам
Fm        G 
Не и да заборавам
     Fm           G        Cm
А за тоа ти си ми должна до крај

[Solo] Modulation Gm-Am

e|-------------------------------------------10--12-13-10-12
B|----13---s12--10----------------10--12--13----------------
G|-----------------9~-----------9---------------------------
D|----------------------10s9s10-----------------------------
A|----------------------------------------------------------
E|----------------------------------------------------------

e|--12p8----------------------------------------------------
B|-------12-10s---------------------------------------------
G|--------------s10-9-7-------------7-7--9-9~---------------
D|-----------------------10-9-9--10---------------9h10p9p7--
A|----------------------------------------------------------
E|----------------------------------------------------------

e|------------------------------------10-----10-12--13-10-12
B|--------10-12-13~--10-12-13~--12-13-----13----------------
G|------9---------------------------------------------------
D|-9-10-----------------------------------------------------
A|----------------------------------------------------------
E|----------------------------------------------------------

e|-17-17-17s---12h13p12p10--------------------------12p8----
B|------------------------13-12-10-9---------------------10-
G|----------------------------------10-9-7------------------
D|----------------------------------------10-9-7~-----------
A|----------------------------------------------------------
E|----------------------------------------------------------

e|----------------------------------------------------------
B|----------------------------------------------------------
G|--9-------------------------------------------------------
D|----10-9--------------------------------------------------
A|---------12-10-8~-----------------------------------------
E|----------------------------------------------------------


[Chorus]

Am    Dm
Верувај
G          C
Ништо намерно
Am   Dm            E         Am
Не сакав да ни се случи најлошо
Am    Dm
Гордоста
   G         C
Нe донесе до дно
Gm          Dm
Можам да не те сакам
Gm        A 
Не и да заборавам
     Gm           A        Dm
А за тоа ти си ми должна до крај
Добавлено: 08.09.2017
Другие материалы по этой песне:
  • Аккорды и текст

Страница создана 04.12.2013
http://primanota.ru/tose-proeski/najdraga-moja-chords.htm
Привет, Гость.
Предлагаем пройти революционный курс по гитаре.
Подарок от PrimaNota.Ru, забирай!