PrimaNota.ru - самый крупный в мире бесплатный архив песенных текстов, аккордов, табулатур и нот


Tose Proeski - Ljubena - аккорды и текст, видео

Регистрация Запомнить меня
Войти через:  Facebook Google Twitter Vk Yandex Mail.ru

Tose Proeski - Ljubena - аккорды и текст, видео

Печатать
Просмотров: 48
Ljubena
Tose Proeski
[Verse]

Bm              Em            Bm
Вечерва повторно празна е постелава
          Em           A
Без твојта душо нежна прегратка
      Bm
А болка в душава
       Em
Мир не ми дава
  F#
Горам.....

D                A            D
Твојот лик ми краде сон од очиве
       C         F#
Откако си замина ти

Љубена...

[Chorus]

Bm       E Em             Bm
Гори, мојто срце в ноќва студена
      Em
Сал за тебе збори
A             Bm
Прости којшто љуби душо
     F#         Em
Може и да погреши
      Bm
Ех да можам
     E Em          Bm
Ноќва би ја дал вселената
      E Em           A
Повторно од твоите усни
      Bm
Да се опијам
         Em
На гради да ти заспијам

e|------------------------------------------|
B|------------------------------------------|
G|--s7--6p4--4------4--9p7p6----------------|
D|---------7----4-7----------9-7-9---7-9----|
A|---------------------------------9--------|
E|------------------------------------------|

e|-------------------------------------------|
B|-------------------------------------------|
G|--s8--7p5--5------5--10p8p7----------------|
D|---------8----5-8-----------10-8-10---8-10-|
A|-----------------------------------10------|
E|-------------------------------------------|

[Verse] Modulation Bm-Cm

Cm              Fm         Cm
Спомени ветровите ми носат љубена
         Fm         Bb
А јас ги молам душо и тебе
         Cm
Да ми те донесат
        Bb          Eb
Ноќва в мојата прегратка
Gm
Откако [откако]
Cm
Замина [замина]
        G
Немам мир љубена

[Chorus]

Cm          F Fm         Cm
Гори, мојто срце в ноќва студена
      F Fm     
Сал за тебе збори
Bb            Cm
Прости којшто љуби душо
     G         Dbm
Може и да погреши

Modulation Cm-Dbm

Dbm          Gb Gbm         Dbm
Гори, мојто срце в ноќва студена
      Gb Gbm     
Сал за тебе збори
B            Dbm
Прости којшто љуби душо
     G#         Dbm
Може и да погреши

      Dbm
Ех да можам
     Gb Gbm        Dbm
Ноќва би ја дал вселената
      Gb Gbm        B
Повторно од твоите усни
      Dbm
Да се опијам
         
На гради... 

e|-------------------------------------------|
B|----------8-6-5---5-6-8--------------------|
G|----------------7--------------------------|
D|-------------------------------------------|
A|-------------------------------------------|
E|-------------------------------------------|

Modulation Dbm-Dm

A              Dm
Да-а-а ти заспијам
Добавлено: 01.05.2016
Другие материалы по этой песне:
  • Аккорды и текст

Страница создана 12.06.2012
http://primanota.ru/tose-proeski/ljubena-chords.htm
Привет, Гость.
Предлагаем пройти революционный курс по гитаре.
Подарок от PrimaNota.Ru, забирай!