PrimaNota.ru - самый крупный в мире бесплатный архив песенных текстов, аккордов, табулатур и нот


Tose Proeski - Iluzija - аккорды и текст, видео

Регистрация Запомнить меня
Войти через:  Facebook Google Twitter Vk Yandex Mail.ru

Tose Proeski - Iluzija - аккорды и текст, видео

Печатать
Просмотров: 46
Iluzija
Tose Proeski
[Verse]

Am                         Asus2           
Ti si tajna beskrajna kako srna skriena, 
       Dm                    Am
nokj, ko more, bran sto doagja
F                      C                    G  E/G#
Rodena samo za mene si ti i za vecnost darena-a-a
  Am                     Asus2                Dm           Am
Neka svirat kavali, neka pejat poeti, pak si tuka dusa ogrea
      F                   C              G
Volsebna kako nekogas si ti ti od nebo dadena

[Chorus]

      C Dm Em F G Am
Iluzija vo misla videna
F  Fm         C       E        Am   Am7
Na son sozdadena, za mene cuvana, 
      F               G                C Dm Em
samovila vo belo mi doagjas pak ko magija-a-a
    F      G    Am   F   Fm          C
Ti dzvezda skitnica-a vo magli skriena
     E       Am      F   G     C
 za mene izbrana ko iluzija si ti

[Solo]

       C    Dm       Em            F     G          Am   

e|-----------------------------------8-----------8-------
B|---------------3--6b8~~---5h6s8s10---10pb8p6-8---8s10--
G|-----5~~~-s4-5-----------------------------------------
D|-------------------------------------------------------
A|-------------------------------------------------------
E|-------------------------------------------------------

                                  F          Fm

e|--5h7s8s10-8-10--10b12r10p8----8-8------8-10---8--10---
B|----------------------------10----10--------9--------8-
G|-------------------------------------------------------
D|-------------------------------------------------------
A|-------------------------------------------------------
E|-------------------------------------------------------

  C          E                   Am                      
   PM-|
E|---------8-10--8-10s12---10s15-15b17~~-15p12-----------
E|----1---8-----9--------9-------------------13----------
E|---0---9------------------------------------12---------
E|--2------------------------------------------14--------
E|-3--------------------------------------------15p14p12-
E|-------------------------------------------------------
 
         F         G    C          

e|----------------------
B|---8p5h6--6-8b10r8~~~-
G|----------------------
D|----------------------
A|----------------------
E|----------------------

[Verse]

     Am    
Ti si prikazna bez kraj, 
     Asus2
moja plima oseka, 
      Dm               Am
ti si patot pocetok i kraj
    F                  C
Rodena samo za mene si ti 
            G
mene si mi sudena

[Chorus]

      C Dm Em F G Am
Iluzija vo misla videna
F  Fm         C       E        Am   Am7
Na son sozdadena, za mene cuvana, 
      F               G                C Dm Em
samovila vo belo mi doagjas pak ko magija-a-a
    F      G    Am   F   Fm          C
Ti dzvezda skitnica-a vo magli skriena
     E       Am      F   G     C
 za mene izbrana ko iluzija si ti


Am                         Asus2
Ti si tajna beskrajna kako srna skriena, 
       Dm                    Am
nokj, ko more, bran sto doagja

[Chords]

E/G# --- 4224xx
Asus2 -- x02450
Добавлено: 31.10.2015
Другие материалы по этой песне:
  • Аккорды и текст

Страница создана 31.10.2015
http://primanota.ru/tose-proeski/iluzija-chords.htm
Привет, Гость.
Предлагаем пройти революционный курс по гитаре.
Подарок от PrimaNota.Ru, забирай!