PrimaNota.ru - самый крупный в мире бесплатный архив песенных текстов, аккордов, табулатур и нот


Tory Lee Babcock - The Player - таба, видео

Регистрация Запомнить меня
Войти через:  Facebook Google Twitter Vk Yandex Mail.ru

Tory Lee Babcock - The Player - таба, видео

Печатать
Просмотров: 70
-------------------------------------------------------------------------------
                             SONG NAME  The Player - Band Name
-------------------------------------------------------------------------------
Tabbed by:Me
E-mail:torybab@yahoo.com

Tuning:Standard
intro
e|---------------------------------------------------------------------------|
B|---------------------------------------------------------------------------|
G|---------------------------------------------------------------------------|
D|-5-5-5-5-5-5-5-3-3-3-3-3-3-3-----------------------------------------------|
A|-3-3-3-3-3-3-3-1-1-1-1-1-1-1-3-3-3-3-3-3-3-3-3-3-3-3-3-3-3-3---------------|
E|-----------------------------1-1-1-1-1-1-1-1-1-1-1-1-1-1-1-1---------------|
                                 (repeat two times)
e|---------------------------------------------------------------------------|
B|---------------------------------------------------------------------------|
G|---------------------------------------------------------------------------|
D|---------------------------------------------------------------------------|
A|-4-5-5-5-4-5-5-5-4-5-5-5-4-5-5-5-4-5-5-5-4-5-5-5-4-5-5-5-4-5-7-5-----------|
E|-2-3-3-3-2-3-3-3-2-3-3-3-2-3-3-3-2-3-3-3-2-3-3-3-2-3-3-3-2-3-5-3-----------|
     repeat all (verse 1, verse 2)
e|--------------------------------------------------------------|
B|--------------------------------------------------------------|
G|-5-5-5-5-5-5-5-3-3-3-3-3-3-3----------------------------------|
D|-----------------------------3-3-5-3-6-3-5-3-3-3-5-3-6-3-5-3--|
A|--------------------------------------------------------------|
E|--------------------------------------------------------------|
    solo'    play 3 times,
e|---------------------------------------------------------------------------|
B|---------------------------------------------------------------------------|
G|---------------------------------------------------------------------------|
D|-3-4-5-4-5-6-5-6-7-6-7-8-7-8-9-8-9-10-9-10-11-10-11-12-11-12-13-12-13-14---|
A|---------------------------------------------------------------------------|
E|---------------------------------------------------------------------------|
    pb
e|-----------------------------------|
B|-----------------------------------|
G|-------------------------------17--|
D|-13-14-15-14-15-16-15-16-17-15-----|
A|-----------------------------------|
E|-----------------------------------|
          last note of solo'~         (repeat verse one time),
e|---------------------------------|
B|---------------------------------|
G|---------------------------------|
D|-5-4-6-5-7-6-8-7-9-8-10-9-10-10--|
A|-3-2-4-3-5-4-6-5-7-6-8--7-8--8---|
E|---------------------------------|
     ending                  last chord \


************************************

| /   slide up
| \   slide down
| h   hammer-on
| p   pull-off
| ~   vibrato
| +   harmonic
| x   Mute note
| b   Bend
| pb  Pre-bend
| br  Bend release
| pbr Pre-bend release
| brb Bend release bend

************************************
Добавлено: 19.12.2015
Другие материалы по этой песне:
  • Аккорды и текст

Страница создана 19.12.2015
http://primanota.ru/tory-lee-babcock/player-chords.htm
Привет, Гость.
Предлагаем пройти революционный курс по гитаре.
Подарок от PrimaNota.Ru, забирай!