PrimaNota.ru - самый крупный в мире бесплатный архив песенных текстов, аккордов, табулатур и нот


Tory Babcock - Slinky - бас-таба

Регистрация Запомнить меня
Войти через:  Facebook Google Twitter Vk Yandex Mail.ru

Tory Babcock - Slinky - бас-таба

Печатать
Просмотров: 16
-------------------------------------------------------------------------------
                             Slinky - Tory Babcock
-------------------------------------------------------------------------------
Tabbed by: me
E-mail:

Tuning:

G|---------------------------------------------------------------------------------|
D|---------------------------------------------------------------------------------|
A|-----------------76-------------------76-------------76--------------------------|
E|00000000--00000------00000---32---00000-------32--00000------00000--32----00000--|
 beginning 16th notes,  played all eighth notes
G|-----------------------------------------------------------------------------|
D|-----------------------------------------------------------------------------|
A|--76--------------------76--------------------76-------------------76--------|
E|------00000--32--00000------00000--32--00000-----00000--32--00000-----00000--|

G|------------------------------------------------------------------------------|
D|------------------------------------------------------------------------------|
A|-------------76--------------------67-------------------67--------------------|
E|--32-00000-------00000--32--00000-----00000--32--00000------00000--32--00000--|
(chorus)
G|-----------------------------------------------------------------------------|
D|-----------------------------------------------------------------------------|
A|--67--------------------67-------------------76--------------------76--------|
E|------00000--32--00000------0000--32--00000------00000--32--00000-----00000--|

G|------------------------------------------------------------------------------|
D|------------------------------------------------------------------------------|
A|-------------76--------------------76--------------------76-------------------|
E|--32--00000-----00000--32--00000-------00000--32--00000-----00000--32--00000--|

G|------------------------------------------------------------------------------|
D|------------------------------------------------------------------------------|
A|--76--------------------76--------------------76--------------------67--------|
E|------00000--32--00000------00000--32--00000------00000--32--00000-----00000--|

G|-----------------------------------------------------------------------------|
D|-----------------------------------------------------------------------------|
A|------------67-------------------67--------------------67--------------------|
E|--23-00000-----00000--23--00000------00000--23--00000------00000--23--00000--|
(repeat chorus)
G|-----------------------------------------------------------------------------|
D|-----------------------------------------------------------------------------|
A|--76--------------------76--------------------76-------------------76--------|
E|------00000--32--00000------00000--32--00000------00000--32-00000-----00000--|

G|----------------------------------------------|
D|----------------------------------------------|
A|-------------76-------------------------------|
E|--32--00000------00000--32--0000001--0000032--|


| /  slide up
| \  slide down
| h  hammer-on
| p  pull-off
| ~  vibrato
| +  harmonic
| x  Mute note
===============================================================================
Добавлено: 17.11.2015
Вам также может быть интересно:
Другие материалы по этой песне:
  • Аккорды и текст

Страница создана 17.11.2015
http://primanota.ru/tory-babcock/slinky-chords.htm
Привет, Гость.
Предлагаем пройти революционный курс по гитаре.
Подарок от PrimaNota.Ru, забирай!