PrimaNota.ru - самый крупный в мире бесплатный архив песенных текстов, аккордов, табулатур и нот


Torture Killer - Heading Towards The Butchery - таба, видео

Регистрация Запомнить меня
Войти через:  Facebook Google Twitter Vk Yandex Mail.ru

Torture Killer - Heading Towards The Butchery - таба, видео

Печатать
Просмотров: 115
Heading Towards the Butchery - Torture Killer

Tuning (low to high) D G C F A D

I learnt this song by ear, it took me a while to get it right but I got it. It's 100% 
correct and I know that so don't say that I'm doing something wrong.

Riff 1
D  -----------------------------------------------------------------|-------|
A  -----------------------------------------------------------------|-------|
F  -----------------------------------------------------------------|-------|
C  -----------------------------------------------------------------|-------|
G  -2-2-2-2-----------------2-2-2-2-----------------5-5-5-5---------|-2-2-2-|
D  ---------1-1-1-1-0-0-0-0---------1-1-1-1-0-0-0-0---------1-1-1-1-|-0-0-0-|

D  -----------||
A  -----------||
F  -----------||
C  -----------||
G  -2-2-2-2-2-||
D  -0-0-0-0-0-||

Riff 2
D  ------------------------------------------||
A  ------------------------------------------||
F  ------------------------------------------||
C  ---------------7--------------------------||
G  ---------------5----------2-2-2-2---------||
D  -0-0-0-0-0-0-0-5--0-0-0-0---------1-1-1-1-||
    . . . . . . .    . . . .

Riff 3 - Part 1
D  ------------------||
A  ------------------||
F  ------------------||
C  -7----------------||
G  -5-----------6--3-||
D  -5--0--0-0-0-4--1-||
          . . .

Riff 3 - Part 2
D  ---------------------------------||
A  ---------------------------------||
F  ---------------------------------||
C  -7----------------7--------------||
G  -5-----------6--3-5-----2-2--3-3-||
D  -5--0--0-0-0-4--1-5--0--0-0--1-1-||
          . . .

Riff 4
D  ---------------------------------------||
A  ---------------------------------------||
F  ---------------------------------------||
C  ---------------------------------------||
G  -5-5-5-5-------------------------------||
D  ---------0-0-0-0-0-0-0-4-4-4-4-1-1-1-1-||
                    . . .
Добавлено: 27.06.2013
Вам также может быть интересно:
Другие материалы по этой песне:

Страница создана 27.06.2013
http://primanota.ru/torture-killer/heading-towards-the-butchery-chords.htm
Привет, Гость.
Предлагаем пройти революционный курс по гитаре.
Подарок от PrimaNota.Ru, забирай!