PrimaNota.ru - самый крупный в мире бесплатный архив песенных текстов, аккордов, табулатур и нот


Tortoise - Spiderwebbed - бас-таба, видео

Регистрация Запомнить меня
Войти через:  Facebook Google Twitter Vk Yandex Mail.ru

Tortoise - Spiderwebbed - бас-таба, видео

Печатать
Просмотров: 87
Авторы музыки: Tortoise

Spiderwebbed by Tortoise from the self-titled album Tortoise.

       harm.
G-------12---4---------4---|
D-2------------2-2h4h5---0-|
A--------------------------|
E---0-0----0---------------|

       harm.
G-------12---4---------4---|
D-2------------2-2h4h5---0-|
A--------------------------|
E---0-0----0---------------|

       harm.
G-------12---4---------4---|
D-2------------2-2h4h5---0-|
A--------------------------|
E---0-0----0---------------|
Добавлено: 15.08.2013
Другие материалы по этой песне:
  • Аккорды и текст

Страница создана 15.08.2013
http://primanota.ru/tortoise/spiderwebbed-chords.htm
Привет, Гость.
Предлагаем пройти революционный курс по гитаре.
Подарок от PrimaNota.Ru, забирай!