PrimaNota.ru - самый крупный в мире бесплатный архив песенных текстов, аккордов, табулатур и нот


Toro Y Moi - New Beat - бас-таба, видео

Регистрация Запомнить меня
Войти через:  Facebook Google Twitter Vk Yandex Mail.ru

Toro Y Moi - New Beat - бас-таба, видео

Печатать
Просмотров: 134
Уроки эстрадного вокала в Санкт-Петербурге
-------------------------------------------------------------------------------
                             NEW BEAT - Toro Y Moi
-------------------------------------------------------------------------------
Tabbed by: forestgospel
E-mail: f0r3stg0spel@gmail.com

Tuning: EADG (Standard)

intro (x1)
G|---------------------------------------------------------------|
D|-------------5---------------5--7--7h8-7\----------------------|
A|-----------5---------------5-----------------------------------|
E|--3~-(x4)------3~-(x3)-----------------------------------------|

(x2)
G|---------------------------------------------------------------|
D|---------------------------------------------------------------|
A|----------3-5-3---------3--5-5-5--3----------------------------|
E|-3-5-6--6---------5-5-5-------------5--------------------------|

(x1)
G|---------------------------------------------------------------|
D|----------------------------------7\---------------------------|
A|----------3-5-3---------3--5-5-5-------------------------------|
E|-3-5-6--6---------5-5-5----------------------------------------|

(x1)
G|---------------------------------------------------------------|
D|---------------------------------------------------------------|
A|----------3-5-3---------3-5-5-5--5-5---------------------------|
E|-3-5-6--6---------5-5-5----------------------------------------|

(x2)
G|---------------------------------------------------------------|
D|----------------------------------7\---------------------------|
A|----------3-5-3---------3--5-5-5-------------------------------|
E|-3-5-6--6---------5-5-5----------------------------------------|

verse (x1) (don't keep it all in your head...)
G|---------------------------------------------------------------|
D|---5-------------5--------------5---------------5-7-8-7--------|
A|-----5-------------5--------------5---------------------8------|
E|-3-----3----3--------3----3---------3----3----------------10---|

(x1)
G|---------------------------------------------------------------|
D|---5-------------5--------------5------------------5-5---7\----|
A|-----5-------------5--------------5--------------5-----5-------|
E|-3-----3----3--------3----3---------3----3---------------------|

(x1)
G|---------------------------------------------------------------|
D|---5-------------5--------------5------------------5/7h8h7-----|
A|-----5-------------5--------------5--------------5---------8\--|
E|-3-----3----3--------3----3---------3----3---------------------|

chorus (x4) (i know i'd forget...)
G|---------------------------------------------------------------|
D|---------------------------------------------------------------|
A|---------------------3-5-5-5-5---------------------------------|
E|-3-5-6--6-5-6--6-5-6-------------------------------------------|

(x2)
G|---------------------------------------------------------------|
D|-----------------------------------5---------------------------|
A|----------3-5-3--5--5-5-5--3--3-3----3-------------------------|
E|-3-5-6--6------------------------------------------------------|

verse (x2) (got left surrounded...)
G|---------------------------------------------------------------|
D|---5-------------5--------------5------------------5/7h8h7-----|
A|-----5-------------5--------------5--------------5---------8\--|
E|-3-----3----3--------3----3---------3----3---------------------|

(x1)
G|---------------------------------------------------------------|
D|---5-------------5--------------5------------------5-8-8h7-----|
A|-----5-------------5--------------5--------------5---------8\--|
E|-3-----3----3--------3----3---------3----3---------------------|

G|----------------------------------------------7---------7------|
D|---5-------------5--------------5------------------------------|
A|-----5-------------5--------------5----------------------------|
E|-3-----3----3--------3----3---------3----3---------------------|
                                                P         P

bridge
G|-7-------------------------------------7-----------------------|
D|--------------------5h7--------5h7----------------------5/7h8--|
A|-----------------5---------------------------------------------|
E|---------3----------------------------------------3------------|
   P                                     P

G|-7-------------------------------------------------------------|
D|---------------------------------------------------------------|
A|---------------------------------------------------------------|
E|----------3----------------------------------------------------|
   P

chorus (x4) (i know i'd forget...)
G|---------------------------------------------------------------|
D|---------------------------------------------------------------|
A|-------------------5\--3--3-3h5--------------------------------|
E|-3-5-6--6-5-6--6-5---------------------------------------------|

(x1)
G|---------------------------------------------------------------|
D|---------------------------------------------------------------|
A|---------------5--5-5--3--3-3h5--------------------------------|
E|-3-5-6--6-5-6--------------------------------------------------|

(x1)
G|---------------------------------------------------------------|
D|--------------------7------------------------------------------|
A|---------------5--5---5--3--3-3h5------------------------------|
E|-3-5-6--6-5-6--------------------------------------------------|

(x1)
G|---------------------------------------------------------------|
D|---------------------------------------------------------------|
A|---------------5--5-5h7h5--3--3-3h5----------------------------|
E|-3-5-6--6-5-6--------------------------------------------------|

(x1)
G|---------------------------------------------------------------|
D|---------------------------------------------------------------|
A|----------3-5--5--5-5--3--3-3h5--------------------------------|
E|-3-5-6--6------------------------------------------------------|

(x1)
G|---------------------------------------------------------------|
D|--------------------7------------------------------------------|
A|---------------5--5---5--3--3-3h5------------------------------|
E|-3-5-6--6-5-6--------------------------------------------------|

(x1)
G|---------------------------------------------------------------|
D|---------------------------------------------------------------|
A|---------------5--5-5h7h5--3--3-3h5----------------------------|
E|-3-5-6--6-5-6--------------------------------------------------|

outro (x13) (don't forget...)
G|---------------------------------------------------------------|
D|---------------------------------------------------------------|
A|----------3-5-3--------3--5--5-5--3----------------------------|
E|-3-5-6--6-------5--5-5--------------5--------------------------|

end on:

E|-3-5-6------|


| /  slide up
| \  slide down
| h  hammer-on
| p  pull-off
| ~  vibrato
| +  harmonic
| x  Mute note
===============================================================================
Добавлено: 22.06.2016
Другие материалы по этой песне:
  • Аккорды и текст

Страница создана 22.06.2016
http://primanota.ru/toro-y-moi/new-beat-chords.htm
Привет, Гость.
Предлагаем пройти революционный курс по гитаре.
Подарок от PrimaNota.Ru, забирай!