PrimaNota.ru - самый крупный в мире бесплатный архив песенных текстов, аккордов, табулатур и нот


Toro Y Moi - Go With You - таба, видео

Регистрация Запомнить меня
Войти через:  Facebook Google Twitter Vk Yandex Mail.ru

Toro Y Moi - Go With You - таба, видео

Печатать
Просмотров: 120
-------------------------------------------------------------------------------
                             SONG NAME - Band Name
-------------------------------------------------------------------------------
Tabbed by: jinklos
E-mail:

This is the tab for the outro solo in Go With You. Should be 100% correct, I tabbed it from a youtube
video of them playing it live.

Tuning: EGBDAe

e|---------------------------------------------------------------------------|
B|---11---11---9---9-11-14---11---11-11--9-9--7-7--6-6--7-----------11---11--|
G|---------------------------------------------------------6--6--------------|
D|---------------------------------------------------------------------------|
A|---------------------------------------------------------------------------|
E|---------------------------------------------------------------------------|

e|---------------------------------------------------------------------------|
B|-9---9-11-14---11---11-11--9-9--7-7--6-6--7----------------------------7h9-|
G|---------------------------------------------6--8--------6--8-8--8--6------|
D|---------------------------------------------------6--8--------------------|
A|---------------------------------------------------------------------------|
E|---------------------------------------------------------------------------|

e|---------------------------------------------------------------------------|
B|-7--7-------------9--11--11--11~~------------------------------------------|
G|-------6--8-8--8-----------------------------------------------------------|
D|---------------------------------------------------------------------------|
A|---------------------------------------------------------------------------|
E|---------------------------------------------------------------------------|


************************************

| /   slide up
| \   slide down
| h   hammer-on
| p   pull-off
| ~   vibrato
| +   harmonic
| x   Mute note
| b   Bend
| pb  Pre-bend
| br  Bend release
| pbr Pre-bend release
| brb Bend release bend

************************************
Добавлено: 25.12.2015
Другие материалы по этой песне:
  • Аккорды и текст

Страница создана 25.12.2015
http://primanota.ru/toro-y-moi/go-with-you-chords.htm
Привет, Гость.
Предлагаем пройти революционный курс по гитаре.
Подарок от PrimaNota.Ru, забирай!