PrimaNota.ru - самый крупный в мире бесплатный архив песенных текстов, аккордов, табулатур и нот


Tornados - Telstar - таба, бас-таба, видео

Регистрация Запомнить меня
Войти через:  Facebook Google Twitter Vk Yandex Mail.ru

Tornados - Telstar - таба, бас-таба, видео

Печатать
Просмотров: 150
Уроки эстрадного вокала в Санкт-Петербурге
TELSTAR

As recorded by The Tornados
(From the 1962 Album THE SOUNDS OF THE TORNADOS)

Music by Joe Meek

Transcribed by Slowhand


Gtr I (E A D G B E) - 'Roger LaVern - Organ'
Gtr II (E A D G B E) - 'George Bellamy - Electric Guitar'
Gtr III (E A D G B E) - 'Alan Caddy - Electric Guitar'


  Q=144
  N.C.       F#
 4/4
  Gtr I (Organ arr. for Gtr.)
  W          Q     Q     H             Q     Q     H
|----------|-2-----------------------|-2-----------------------|
|----------|-------------------------|-------------------------|
|----------|-------------------------|-------------------------|
|----------|-------------------------|-------------------------|
|----------|-------------------------|-------------------------|
|----------|-------------------------|-------------------------|
|
| Gtr II (Clean El. Gtr.)
| W          E S S E S S E S S E S S   E S S E S S E S S E S S
|----------|-2-2-2-2-2-2-2-2-2-2-2-2-|-2-2-2-2-2-2-2-2-2-2-2-2-|
|----------|-2-2-2-2-2-2-2-2-2-2-2-2-|-2-2-2-2-2-2-2-2-2-2-2-2-|
|----------|-3-3-3-3-3-3-3-3-3-3-3-3-|-3-3-3-3-3-3-3-3-3-3-3-3-|
|----------|-4-4-4-4-4-4-4-4-4-4-4-4-|-4-4-4-4-4-4-4-4-4-4-4-4-|
|----------|-4-4-4-4-4-4-4-4-4-4-4-4-|-4-4-4-4-4-4-4-4-4-4-4-4-|
|----------|-2-2-2-2-2-2-2-2-2-2-2-2-|-2-2-2-2-2-2-2-2-2-2-2-2-|


                             G
  H.                 Q       H.                 Q
|--------------------------|---------------------------|
|--------------------------|---------------------------|
|--------------------------|---------------------------|
|-4------------------------|-5-------------------------|
|--------------------------|---------------------------|
|--------------------------|---------------------------|
|
| E  S S E S S E S S E S S   E  S S E S S E S S E S S
|-2--2-2-2-2-2-2-2-2-2-2-2-|-3--3-3-3-3-3-3-3-3-3-3-3--|
|-2--2-2-2-2-2-2-2-2-2-2-2-|-3--3-3-3-3-3-3-3-3-3-3-3--|
|-3--3-3-3-3-3-3-3-3-3-3-3-|-4--4-4-4-4-4-4-4-4-4-4-4--|
|-4--4-4-4-4-4-4-4-4-4-4-4-|-5--5-5-5-5-5-5-5-5-5-5-5--|
|-4--4-4-4-4-4-4-4-4-4-4-4-|-5--5-5-5-5-5-5-5-5-5-5-5--|
|-2--2-2-2-2-2-2-2-2-2-2-2-|-3--3-3-3-3-3-3-3-3-3-3-3--|


                                                      $
  G#                         A
  Gtr I
  H.                 Q       H.                 Q
|--------------------------|--------------------------|
|--------------------------|--------------------------|
|--------------------------|--------------------------|
|-6------------------------|-7------------------------|
|--------------------------|--------------------------|
|--------------------------|--------------------------|
|
| Gtr II
| E  S S E S S E S S E S S   E  S S E S S E S S E S S
|-4--4-4-4-4-4-4-4-4-4-4-4-|-5--5-5-5-5-5-5-5-5-5-5-5-|
|-4--4-4-4-4-4-4-4-4-4-4-4-|-5--5-5-5-5-5-5-5-5-5-5-5-|
|-5--5-5-5-5-5-5-5-5-5-5-5-|-6--6-6-6-6-6-6-6-6-6-6-6-|
|-6--6-6-6-6-6-6-6-6-6-6-6-|-7--7-7-7-7-7-7-7-7-7-7-7-|
|-6--6-6-6-6-6-6-6-6-6-6-6-|-7--7-7-7-7-7-7-7-7-7-7-7-|
|-4--4-4-4-4-4-4-4-4-4-4-4-|-5--5-5-5-5-5-5-5-5-5-5-5-|


    A                           F#m
     H.                 Q        H.                 Q
||----------------------------|-----------------------------|
||o-10------------------------|-----------------------------|
||----------------------9-----|-11------------------9-------|
||---7------------------------|-----------------------------|
||o---------------------7-----|--9------------------7-------|
||----------------------------|-----------------------------|
|
|    E  S S E S S E S S E S S    E  S S E S S E S S E S S
||---5--5-5-5-5-5-5-5-5-5-5-5-|--2--2-2-2-2-2-2-2-2-2-2-2---|
||o--5--5-5-5-5-5-5-5-5-5-5-5-|--2--2-2-2-2-2-2-2-2-2-2-2---|
||---6--6-6-6-6-6-6-6-6-6-6-6-|--2--2-2-2-2-2-2-2-2-2-2-2---|
||---7--7-7-7-7-7-7-7-7-7-7-7-|--4--4-4-4-4-4-4-4-4-4-4-4---|
||o--7--7-7-7-7-7-7-7-7-7-7-7-|--4--4-4-4-4-4-4-4-4-4-4-4---|
||---5--5-5-5-5-5-5-5-5-5-5-5-|--2--2-2-2-2-2-2-2-2-2-2-2---|


  D
   Q     Q      Q      Q
|-10-----9-------------------|
|--------------12-----10-----|
|--7-----6-------------------|
|---------------9------7-----|
|----------------------------|
|----------------------------|
|
|  E S S E S S  E S S  E S S
|--5-5-5-5-5-5--5-5-5--5-5-5-|
|--7-7-7-7-7-7--7-7-7--7-7-7-|
|--7-7-7-7-7-7--7-7-7--7-7-7-|
|--7-7-7-7-7-7--7-7-7--7-7-7-|
|--5-5-5-5-5-5--5-5-5--5-5-5-|
|----------------------------|


  E                           A
   H.                 Q        Q     Q      Q      Q
|---------------------------|-10-----9-------------------|
|-12------------------------|--------------12-----10-----|
|---------------------9-----|--7-----6-------------------|
|--9------------------------|---------------9------7-----|
|---------------------7-----|----------------------------|
|---------------------------|----------------------------|
|
|  E  S S E S S E S S E S S    E S S E S S  E S S  E S S
|--7--7-7-7-7-7-7-7-7-7-7-7-|--5-5-5-5-5-5--5-5-5--5-5-5-|
|--9--9-9-9-9-9-9-9-9-9-9-9-|--5-5-5-5-5-5--5-5-5--5-5-5-|
|--9--9-9-9-9-9-9-9-9-9-9-9-|--6-6-6-6-6-6--6-6-6--6-6-6-|
|--9--9-9-9-9-9-9-9-9-9-9-9-|--7-7-7-7-7-7--7-7-7--7-7-7-|
|--7--7-7-7-7-7-7-7-7-7-7-7-|--7-7-7-7-7-7--7-7-7--7-7-7-|
|---------------------------|--5-5-5-5-5-5--5-5-5--5-5-5-|


  F#m                        D
   H           H               W
|--------------------------|-/12-----------------------|
|-12-----------------------|---------------------------|
|--------------9-----------|--/9-----------------------|
|--9-----------------------|---------------------------|
|--------------7-----------|---------------------------|
|--------------------------|---------------------------|
|
|  E S S E S S E S S E S S     E S S E S S E S S E S S
|--2-2-2-2-2-2-2-2-2-2-2-2-|---5-5-5-5-5-5-5-5-5-5-5-5-|
|--2-2-2-2-2-2-2-2-2-2-2-2-|---7-7-7-7-7-7-7-7-7-7-7-7-|
|--2-2-2-2-2-2-2-2-2-2-2-2-|---7-7-7-7-7-7-7-7-7-7-7-7-|
|--4-4-4-4-4-4-4-4-4-4-4-4-|---7-7-7-7-7-7-7-7-7-7-7-7-|
|--4-4-4-4-4-4-4-4-4-4-4-4-|---5-5-5-5-5-5-5-5-5-5-5-5-|
|--2-2-2-2-2-2-2-2-2-2-2-2-|---------------------------|


  E                            C#m
   +W                           H            Q      Q
|-(12)-----------------------|-14-----------12--------------|
|----------------------------|---------------------10-------|
|--(9)-----------------------|-11------------9--------------|
|----------------------------|----------------------7-------|
|----------------------------|------------------------------|
|----------------------------|------------------------------|
|
|   E  S S E S S E S S E S S    E S S E S S  E S S  E S S
|---7--7-7-7-7-7-7-7-7-7-7-7-|--4-4-4-4-4-4--4-4-4--4-4-4---|
|---9--9-9-9-9-9-9-9-9-9-9-9-|--5-5-5-5-5-5--5-5-5--5-5-5---|
|---9--9-9-9-9-9-9-9-9-9-9-9-|--6-6-6-6-6-6--6-6-6--6-6-6---|
|---9--9-9-9-9-9-9-9-9-9-9-9-|--6-6-6-6-6-6--6-6-6--6-6-6---|
|---7--7-7-7-7-7-7-7-7-7-7-7-|--4-4-4-4-4-4--4-4-4--4-4-4---|
|----------------------------|------------------------------|


   H            H
|-12-----------10-----------|
|---------------------------|
|--9------------7-----------|
|---------------------------|
|---------------------------|
|---------------------------|
|
|  E S S E S S  E S S E S S
|--4-4-4-4-4-4--4-4-4-4-4-4-|
|--5-5-5-5-5-5--5-5-5-5-5-5-|
|--6-6-6-6-6-6--6-6-6-6-6-6-|
|--6-6-6-6-6-6--6-6-6-6-6-6-|
|--4-4-4-4-4-4--4-4-4-4-4-4-|
|---------------------------|


  F#m                         D            E
  H            Q      Q        H            H
|-9-------------------------|---------------------------|
|---------------------------|-14-----------12-----------|
|-6-----------10-----11-----|---------------------------|
|---------------------------|-11------------9-----------|
|--------------8------9-----|---------------------------|
|---------------------------|---------------------------|
|
| E S S E S S  E S S  E S S    E S S E S S  E S S E S S
|-2-2-2-2-2-2--2-2-2--2-2-2-|--5-5-5-5-5-5--7-7-7-7-7-7-|
|-2-2-2-2-2-2--2-2-2--2-2-2-|--7-7-7-7-7-7--9-9-9-9-9-9-|
|-2-2-2-2-2-2--2-2-2--2-2-2-|--7-7-7-7-7-7--9-9-9-9-9-9-|
|-4-4-4-4-4-4--4-4-4--4-4-4-|--7-7-7-7-7-7--9-9-9-9-9-9-|
|-4-4-4-4-4-4--4-4-4--4-4-4-|--5-5-5-5-5-5--7-7-7-7-7-7-|
|-2-2-2-2-2-2--2-2-2--2-2-2-|---------------------------|


                                                    To Coda
  A                            F#m
   H.                  Q        Q      Q      Q      Q
|----------------------------|------------------------------|
|-14------------------14-----|-15-----14-----12-----10------|
|----------------------------|------------------------------|
|-11------------------11-----|-12-----11------9------7------|
|----------------------------|------------------------------|
|----------------------------|------------------------------|
|
|  E  S S E S S E S S  E S S    E S S  E S S  E S S  E S S
|--5--5-5-5-5-5-5-5-5--5-5-5-|--2-2-2--2-2-2--2-2-2--2-2-2--|
|--5--5-5-5-5-5-5-5-5--5-5-5-|--2-2-2--2-2-2--2-2-2--2-2-2--|
|--6--6-6-6-6-6-6-6-6--6-6-6-|--2-2-2--2-2-2--2-2-2--2-2-2--|
|--7--7-7-7-7-7-7-7-7--7-7-7-|--4-4-4--4-4-4--4-4-4--4-4-4--|
|--7--7-7-7-7-7-7-7-7--7-7-7-|--4-4-4--4-4-4--4-4-4--4-4-4--|
|--5--5-5-5-5-5-5-5-5--5-5-5-|--2-2-2--2-2-2--2-2-2--2-2-2--|


 1.
  Bm
   H.                  E  E
|------------------------------|
|-12---------------------------|
|---------------------11s14----|
|--9---------------------------|
|----------------------9s12----|
|------------------------------|
|
|  E  S S E S S E S S  E  S S
|--2--2-2-2-2-2-2-2-2--2--2-2--|
|--3--3-3-3-3-3-3-3-3--3--3-3--|
|--4--4-4-4-4-4-4-4-4--4--4-4--|
|--4--4-4-4-4-4-4-4-4--4--4-4--|
|--2--2-2-2-2-2-2-2-2--2--2-2--|
|------------------------------|


                               2.
  E                             Bm
  Gtr I
   Q     Q      Q     Q          H.                  Q
|----------------------------||----------------------------|
|-10-----9------------------o||-12-------------------------|
|--------------11-----9------||---------------------14-----|
|--7-----6-------------------||--9-------------------------|
|---------------9-----7-----o||---------------------12-----|
|----------------------------||----------------------------|
|
| Gtr III (Clean El. Gtr.)
|  W                             W
|----------------------------||----------------------------|
|---------------------------o||----------------------------|
|----------------------------||----------------------------|
|----------------------------||----------------------------|
|---------------------------o||----------------------------|
|----------------------------||----------------------------|
|
| Gtr II
|  E S S E S S  E S S E S S      E  S S E S S E S S  E S S
|--7-7-7-7-7-7--7-7-7-7-7-7--||--2--2-2-2-2-2-2-2-2--2-2-2-|
|--9-9-9-9-9-9--9-9-9-9-9-9-o||--3--3-3-3-3-3-3-3-3--3-3-3-|
|--9-9-9-9-9-9--9-9-9-9-9-9--||--4--4-4-4-4-4-4-4-4--4-4-4-|
|--9-9-9-9-9-9--9-9-9-9-9-9--||--4--4-4-4-4-4-4-4-4--4-4-4-|
|--7-7-7-7-7-7--7-7-7-7-7-7-o||--2--2-2-2-2-2-2-2-2--2-2-2-|
|----------------------------||----------------------------|


  E                              A
   Q      Q      Q      Q         W
|-----------------------------||----------------------------------|
|-14-----12-----10-----12-----||-10-------------------------------|
|-----------------------------||----------------------------------|
|-11------9------7------9-----||--7-------------------------------|
|-----------------------------||----------------------------------|
|-----------------------------||----------------------------------|
|
|                                 |-----3-----|
|  W                              Q    Q      Q      Q      Q
|-----------------------------||-12---12-----12-----12-----14-----|
|-----------------------------||----------------------------------|
|-----------------------------||----------------------------------|
|-----------------------------||----------------------------------|
|-----------------------------||----------------------------------|
|-----------------------------||----------------------------------|
|
|  E S S  E S S  E S S  E S S     E S    S E    S S  E S S  E S S
|--7-7-7--7-7-7--7-7-7--7-7-7-||--5-5----5-5----5-5--5-5-5--5-5-5-|
|--9-9-9--9-9-9--9-9-9--9-9-9-||--5-5----5-5----5-5--5-5-5--5-5-5-|
|--9-9-9--9-9-9--9-9-9--9-9-9-||--6-6----6-6----6-6--6-6-6--6-6-6-|
|--9-9-9--9-9-9--9-9-9--9-9-9-||--7-7----7-7----7-7--7-7-7--7-7-7-|
|--7-7-7--7-7-7--7-7-7--7-7-7-||--7-7----7-7----7-7--7-7-7--7-7-7-|
|-----------------------------||--5-5----5-5----5-5--5-5-5--5-5-5-|


  F#m                          D
  Gtr III
                               |----3-----|
   H            Q      Q       Q    Q     Q     H
|-12-------------------------|-9----------9-----------------|
|--------------10-----12-----|-----12-----------------------|
|----------------------------|------------------9-----------|
|----------------------------|------------------------------|
|----------------------------|------------------------------|
|----------------------------|------------------------------|
|
| Gtr II
|  E S S E S S  E S S  E S S   E S    S E   S S E S S E S S
|--2-2-2-2-2-2--2-2-2--2-2-2-|-5-5----5-5---5-5-7-7-7-7-7-7-|
|--2-2-2-2-2-2--2-2-2--2-2-2-|-7-7----7-7---7-7-9-9-9-9-9-9-|
|--2-2-2-2-2-2--2-2-2--2-2-2-|-7-7----7-7---7-7-9-9-9-9-9-9-|
|--4-4-4-4-4-4--4-4-4--4-4-4-|-7-7----7-7---7-7-9-9-9-9-9-9-|
|--4-4-4-4-4-4--4-4-4--4-4-4-|-5-5----5-5---5-5-7-7-7-7-7-7-|
|--2-2-2-2-2-2--2-2-2--2-2-2-|------------------------------|


  E                             A
                                |----3-----|
  +Q      Q      Q      Q       Q   Q      Q     Q      Q
|-----------------------------|-9---9------------9-----10--------|
|---------------10-----12-----|-----------12---------------------|
|-(9)-------------------------|----------------------------------|
|-----------------------------|----------------------------------|
|-----------------------------|----------------------------------|
|-----------------------------|----------------------------------|
|
|  E  S S E S S  E S S  E S S   E S   S E    S S E S S  E S S
|--7--7-7-7-7-7--7-7-7--7-7-7-|-5-5---5-5----5-5-5-5-5--5-5-5----|
|--9--9-9-9-9-9--9-9-9--9-9-9-|-5-5---5-5----5-5-5-5-5--5-5-5----|
|--9--9-9-9-9-9--9-9-9--9-9-9-|-6-6---6-6----6-6-6-6-6--6-6-6----|
|--9--9-9-9-9-9--9-9-9--9-9-9-|-7-7---7-7----7-7-7-7-7--7-7-7----|
|--7--7-7-7-7-7--7-7-7--7-7-7-|-7-7---7-7----7-7-7-7-7--7-7-7----|
|-----------------------------|-5-5---5-5----5-5-5-5-5--5-5-5----|


  F#m                        D                 E
                              |----3-----|
  H           Q      Q        Q    Q     Q      H
|-9-----------9------------|-------------9------------------|
|-------------------12-----|-10---12-----------12-----------|
|--------------------------|--------------------------------|
|--------------------------|--------------------------------|
|--------------------------|--------------------------------|
|--------------------------|--------------------------------|
|
| E S S E S S E S S  E S S    E S    S E   S S  E S S E S S
|-2-2-2-2-2-2-2-2-2--2-2-2-|--5-5----5-5---5-5--7-7-7-7-7-7-|
|-2-2-2-2-2-2-2-2-2--2-2-2-|--7-7----7-7---7-7--9-9-9-9-9-9-|
|-2-2-2-2-2-2-2-2-2--2-2-2-|--7-7----7-7---7-7--9-9-9-9-9-9-|
|-4-4-4-4-4-4-4-4-4--4-4-4-|--7-7----7-7---7-7--9-9-9-9-9-9-|
|-4-4-4-4-4-4-4-4-4--4-4-4-|--5-5----5-5---5-5--7-7-7-7-7-7-|
|-2-2-2-2-2-2-2-2-2--2-2-2-|--------------------------------|


   +Q      Q     Q      Q
|----------------9-----10-----|
|-(12)------------------------|
|-----------------------------|
|-----------------------------|
|-----------------------------|
|-----------------------------|
|
|   E  S S E S S E S S  E S S
|---7--7-7-7-7-7-7-7-7--7-7-7-|
|---9--9-9-9-9-9-9-9-9--9-9-9-|
|---9--9-9-9-9-9-9-9-9--9-9-9-|
|---9--9-9-9-9-9-9-9-9--9-9-9-|
|---7--7-7-7-7-7-7-7-7--7-7-7-|
|-----------------------------|


  A                                  F#m
   |-----3-----|
   Q    Q      Q      Q      Q        H            Q      Q
|-12---12-----12-----12-----14-----|-12-------------------------|
|----------------------------------|--------------10-----12-----|
|----------------------------------|----------------------------|
|----------------------------------|----------------------------|
|----------------------------------|----------------------------|
|----------------------------------|----------------------------|
|
|  E S    S E    S S  E S S  E S S    E S S E S S  E S S  E S S
|--5-5----5-5----5-5--5-5-5--5-5-5-|--2-2-2-2-2-2--2-2-2--2-2-2-|
|--5-5----5-5----5-5--5-5-5--5-5-5-|--2-2-2-2-2-2--2-2-2--2-2-2-|
|--6-6----6-6----6-6--6-6-6--6-6-6-|--2-2-2-2-2-2--2-2-2--2-2-2-|
|--7-7----7-7----7-7--7-7-7--7-7-7-|--4-4-4-4-4-4--4-4-4--4-4-4-|
|--7-7----7-7----7-7--7-7-7--7-7-7-|--4-4-4-4-4-4--4-4-4--4-4-4-|
|--5-5----5-5----5-5--5-5-5--5-5-5-|--2-2-2-2-2-2--2-2-2--2-2-2-|


  D                E
  |----3-----|
  Q    Q     Q     H             +Q      Q      Q      Q
|-9----------9-----------------|--------------------------------|
|-----12-----------------------|---------------10-----12--------|
|------------------9-----------|-(9)----------------------------|
|------------------------------|--------------------------------|
|------------------------------|--------------------------------|
|------------------------------|--------------------------------|
|
| E S    S E   S S E S S E S S    E  S S E S S  E S S  E S S
|-5-5----5-5---5-5-7-7-7-7-7-7-|--7--7-7-7-7-7--7-7-7--7-7-7----|
|-7-7----7-7---7-7-9-9-9-9-9-9-|--9--9-9-9-9-9--9-9-9--9-9-9----|
|-7-7----7-7---7-7-9-9-9-9-9-9-|--9--9-9-9-9-9--9-9-9--9-9-9----|
|-7-7----7-7---7-7-9-9-9-9-9-9-|--9--9-9-9-9-9--9-9-9--9-9-9----|
|-5-5----5-5---5-5-7-7-7-7-7-7-|--7--7-7-7-7-7--7-7-7--7-7-7----|
|------------------------------|--------------------------------|


  A                               F#m
  |----3-----|
  Q   Q      Q     Q      Q       H           Q      Q
|-9---9------------9-----10-----|-9-----------9------------|
|-----------12------------------|-------------------12-----|
|-------------------------------|--------------------------|
|-------------------------------|--------------------------|
|-------------------------------|--------------------------|
|-------------------------------|--------------------------|
|
| E S   S E    S S E S S  E S S   E S S E S S E S S  E S S
|-5-5---5-5----5-5-5-5-5--5-5-5-|-2-2-2-2-2-2-2-2-2--2-2-2-|
|-5-5---5-5----5-5-5-5-5--5-5-5-|-2-2-2-2-2-2-2-2-2--2-2-2-|
|-6-6---6-6----6-6-6-6-6--6-6-6-|-2-2-2-2-2-2-2-2-2--2-2-2-|
|-7-7---7-7----7-7-7-7-7--7-7-7-|-4-4-4-4-4-4-4-4-4--4-4-4-|
|-7-7---7-7----7-7-7-7-7--7-7-7-|-4-4-4-4-4-4-4-4-4--4-4-4-|
|-5-5---5-5----5-5-5-5-5--5-5-5-|-2-2-2-2-2-2-2-2-2--2-2-2-|


                                                    D.S. al Coda
  D                 E
   |----3-----|                    |----3----|
   Q    Q     Q      H             Q   Q     Q      H
|-------------9------------------|-----------------10------------||
|-10---12-----------12-----------|-----9-------------------------||
|--------------------------------|-9---------9-------------------||
|--------------------------------|-------------------------------||
|--------------------------------|-------------------------------||
|--------------------------------|-------------------------------||
|
|  E S    S E   S S  E S S E S S   E S   S E   S S  E S S E S S
|--5-5----5-5---5-5--7-7-7-7-7-7-|-7-7---7-7---7-7--7-7-7-7-7-7--||
|--7-7----7-7---7-7--9-9-9-9-9-9-|-9-9---9-9---9-9--9-9-9-9-9-9--||
|--7-7----7-7---7-7--9-9-9-9-9-9-|-9-9---9-9---9-9--9-9-9-9-9-9--||
|--7-7----7-7---7-7--9-9-9-9-9-9-|-9-9---9-9---9-9--9-9-9-9-9-9--||
|--5-5----5-5---5-5--7-7-7-7-7-7-|-7-7---7-7---7-7--7-7-7-7-7-7--||
|--------------------------------|-------------------------------||


  &
  Bm                           E
  Gtr I
   H.                  Q        Q      Q      Q      Q
|----------------------------|-----------------------------||
|-12-------------------------|-14-----12-----10-----12-----||
|---------------------14-----|-----------------------------||
|--9-------------------------|-11------9------7------9-----||
|---------------------12-----|-----------------------------||
|----------------------------|-----------------------------||
|
| Gtr III
|  W                            W
|----------------------------|-----------------------------||
|----------------------------|-----------------------------||
|----------------------------|-----------------------------||
|----------------------------|-----------------------------||
|----------------------------|-----------------------------||
|----------------------------|-----------------------------||
|
| Gtr II
|  E  S S E S S E S S  E S S    E S S  E S S  E S S  E S S
|--2--2-2-2-2-2-2-2-2--2-2-2-|--7-7-7--7-7-7--7-7-7--7-7-7-||
|--3--3-3-3-3-3-3-3-3--3-3-3-|--9-9-9--9-9-9--9-9-9--9-9-9-||
|--4--4-4-4-4-4-4-4-4--4-4-4-|--9-9-9--9-9-9--9-9-9--9-9-9-||
|--4--4-4-4-4-4-4-4-4--4-4-4-|--9-9-9--9-9-9--9-9-9--9-9-9-||
|--2--2-2-2-2-2-2-2-2--2-2-2-|--7-7-7--7-7-7--7-7-7--7-7-7-||
|----------------------------|-----------------------------||


  A
   W
|----------------------------------|
|-10-------------------------------|
|----------------------------------|
|--7-------------------------------|
|----------------------------------|
|----------------------------------|
|
|  |-----3-----|
|  Q    Q      Q      Q      Q
|-12---12-----12-----12-----14-----|
|----------------------------------|
|----------------------------------|
|----------------------------------|
|----------------------------------|
|----------------------------------|
|
|  E S    S E    S S  E S S  E S S
|--5-5----5-5----5-5--5-5-5--5-5-5-|
|--5-5----5-5----5-5--5-5-5--5-5-5-|
|--6-6----6-6----6-6--6-6-6--6-6-6-|
|--7-7----7-7----7-7--7-7-7--7-7-7-|
|--7-7----7-7----7-7--7-7-7--7-7-7-|
|--5-5----5-5----5-5--5-5-5--5-5-5-|


  F#m
  Gtr III
   H            Q      Q
|-12-------------------------|
|--------------10-----12-----|
|----------------------------|
|----------------------------|
|----------------------------|
|----------------------------|
|
| Gtr II
|  E S S E S S  E S S  E S S
|--2-2-2-2-2-2--2-2-2--2-2-2-|
|--2-2-2-2-2-2--2-2-2--2-2-2-|
|--2-2-2-2-2-2--2-2-2--2-2-2-|
|--4-4-4-4-4-4--4-4-4--4-4-4-|
|--4-4-4-4-4-4--4-4-4--4-4-4-|
|--2-2-2-2-2-2--2-2-2--2-2-2-|


  D                              E
  |----3-----|
  Q    Q     Q     H             +Q      Q      Q      Q
|-9----------9-----------------|-----------------------------|
|-----12-----------------------|---------------10-----12-----|
|------------------9-----------|-(9)-------------------------|
|------------------------------|-----------------------------|
|------------------------------|-----------------------------|
|------------------------------|-----------------------------|
|
| E S    S E   S S E S S E S S    E  S S E S S  E S S  E S S
|-5-5----5-5---5-5-7-7-7-7-7-7-|--7--7-7-7-7-7--7-7-7--7-7-7-|
|-7-7----7-7---7-7-9-9-9-9-9-9-|--9--9-9-9-9-9--9-9-9--9-9-9-|
|-7-7----7-7---7-7-9-9-9-9-9-9-|--9--9-9-9-9-9--9-9-9--9-9-9-|
|-7-7----7-7---7-7-9-9-9-9-9-9-|--9--9-9-9-9-9--9-9-9--9-9-9-|
|-5-5----5-5---5-5-7-7-7-7-7-7-|--7--7-7-7-7-7--7-7-7--7-7-7-|
|------------------------------|-----------------------------|


  A                               F#m
  |----3-----|
  Q   Q      Q     Q      Q       H           Q      Q
|-9---9------------9-----10-----|-9-----------9------------|
|-----------12------------------|-------------------12-----|
|-------------------------------|--------------------------|
|-------------------------------|--------------------------|
|-------------------------------|--------------------------|
|-------------------------------|--------------------------|
|
| E S   S E    S S E S S  E S S   E S S E S S E S S  E S S
|-5-5---5-5----5-5-5-5-5--5-5-5-|-2-2-2-2-2-2-2-2-2--2-2-2-|
|-5-5---5-5----5-5-5-5-5--5-5-5-|-2-2-2-2-2-2-2-2-2--2-2-2-|
|-6-6---6-6----6-6-6-6-6--6-6-6-|-2-2-2-2-2-2-2-2-2--2-2-2-|
|-7-7---7-7----7-7-7-7-7--7-7-7-|-4-4-4-4-4-4-4-4-4--4-4-4-|
|-7-7---7-7----7-7-7-7-7--7-7-7-|-4-4-4-4-4-4-4-4-4--4-4-4-|
|-5-5---5-5----5-5-5-5-5--5-5-5-|-2-2-2-2-2-2-2-2-2--2-2-2-|


  D                 E
   |----3-----|
   Q    Q     Q      H
|-------------9-------------------|
|-10---12-----------12------------|
|---------------------------------|
|---------------------------------|
|---------------------------------|
|---------------------------------|
|
|  E S    S E   S S  E S S E S S
|--5-5----5-5---5-5--7-7-7-7-7-7--|
|--7-7----7-7---7-7--9-9-9-9-9-9--|
|--7-7----7-7---7-7--9-9-9-9-9-9--|
|--7-7----7-7---7-7--9-9-9-9-9-9--|
|--5-5----5-5---5-5--7-7-7-7-7-7--|
|---------------------------------|


  |----3----|
  Q   Q     Q      H
|-----------------10-----------|
|-----9------------------------|
|-9---------9------------------|
|------------------------------|
|------------------------------|
|------------------------------|
|
| E S   S E   S S  E S S E S S
|-7-7---7-7---7-7--7-7-7-7-7-7-|
|-9-9---9-9---9-9--9-9-9-9-9-9-|
|-9-9---9-9---9-9--9-9-9-9-9-9-|
|-9-9---9-9---9-9--9-9-9-9-9-9-|
|-7-7---7-7---7-7--7-7-7-7-7-7-|
|------------------------------|


  C#                                      A  Bb B  C  C#
                                        |--3--|  |--3--|
   W                                    Q  Q  Q  Q  Q  Q
|--9----------------------------------|------------------||
|-------------------------------------|---10-11-12-13-14-||
|-------------------------------------|------------------||
|-------------------------------------|------------------||
|-------------------------------------|------------------||
|-------------------------------------|------------------||
|
|                                       |--3--|  |--3--|
|  E  S  S  E  S  S  E  S  S  E  S  S   Q  Q  Q  Q  Q  Q
|--9--9--9--9--9--9--9--9--9--9--9--9-|----5--6--7--8--9-||
|--9--9--9--9--9--9--9--9--9--9--9--9-|----5--6--7--8--9-||
|-10-10-10-10-10-10-10-10-10-10-10-10-|----6--7--8--9-10-||
|-11-11-11-11-11-11-11-11-11-11-11-11-|----7--8--9-10-11-||
|-11-11-11-11-11-11-11-11-11-11-11-11-|----7--8--9-10-11-||
|--9--9--9--9--9--9--9--9--9--9--9--9-|----5--6--7--8--9-||


  D                            Bm
  Gtr I
   H.                  Q        H.                  Q
|----------------------------|----------------------------|
|-15-------------------------|----------------------------|
|---------------------14-----|-16------------------14-----|
|-12-------------------------|----------------------------|
|---------------------12-----|-14------------------12-----|
|----------------------------|----------------------------|
|
| Gtr II
|  E  S S E S S E S S  E S S    E  S S E S S E S S  E S S
|--5--5-5-5-5-5-5-5-5--5-5-5-|--2--2-2-2-2-2-2-2-2--2-2-2-|
|--7--7-7-7-7-7-7-7-7--7-7-7-|--3--3-3-3-3-3-3-3-3--3-3-3-|
|--7--7-7-7-7-7-7-7-7--7-7-7-|--4--4-4-4-4-4-4-4-4--4-4-4-|
|--7--7-7-7-7-7-7-7-7--7-7-7-|--4--4-4-4-4-4-4-4-4--4-4-4-|
|--5--5-5-5-5-5-5-5-5--5-5-5-|--2--2-2-2-2-2-2-2-2--2-2-2-|
|----------------------------|----------------------------|


  G                             D
   Q      Q      Q      Q        H.                  Q
|-15-----14-------------------|-------------------------------|
|---------------17-----15-----|-17----------------------------|
|-12-----11-------------------|---------------------14--------|
|---------------14-----12-----|-14----------------------------|
|-----------------------------|---------------------12--------|
|-----------------------------|-------------------------------|
|
|  E S S  E S S  E S S  E S S    E  S S E S S E S S  E S S
|--3-3-3--3-3-3--3-3-3--3-3-3-|--5--5-5-5-5-5-5-5-5--5-5-5----|
|--3-3-3--3-3-3--3-3-3--3-3-3-|--7--7-7-7-7-7-7-7-7--7-7-7----|
|--4-4-4--4-4-4--4-4-4--4-4-4-|--7--7-7-7-7-7-7-7-7--7-7-7----|
|--5-5-5--5-5-5--5-5-5--5-5-5-|--7--7-7-7-7-7-7-7-7--7-7-7----|
|--5-5-5--5-5-5--5-5-5--5-5-5-|--5--5-5-5-5-5-5-5-5--5-5-5----|
|--3-3-3--3-3-3--3-3-3--3-3-3-|-------------------------------|


  D                             Bm
   Q      Q      Q      Q        H            H
|-15-----14-------------------|---------------------------|
|---------------17-----15-----|-17------------------------|
|-12-----11-------------------|--------------14-----------|
|---------------14-----12-----|-14------------------------|
|-----------------------------|--------------12-----------|
|-----------------------------|---------------------------|
|
|  E S S  E S S  E S S  E S S    E S S E S S  E S S E S S
|--5-5-5--5-5-5--5-5-5--5-5-5-|--2-2-2-2-2-2--2-2-2-2-2-2-|
|--7-7-7--7-7-7--7-7-7--7-7-7-|--3-3-3-3-3-3--3-3-3-3-3-3-|
|--7-7-7--7-7-7--7-7-7--7-7-7-|--4-4-4-4-4-4--4-4-4-4-4-4-|
|--7-7-7--7-7-7--7-7-7--7-7-7-|--4-4-4-4-4-4--4-4-4-4-4-4-|
|--5-5-5--5-5-5--5-5-5--5-5-5-|--2-2-2-2-2-2--2-2-2-2-2-2-|
|-----------------------------|---------------------------|


  G                           A
    W                          +W
|-/17-----------------------|-(17)--------------------------|
|---------------------------|-------------------------------|
|-/14-----------------------|-(14)--------------------------|
|---------------------------|-------------------------------|
|---------------------------|-------------------------------|
|---------------------------|-------------------------------|
|
|   E S S E S S E S S E S S     E  S S E S S E S S E S S
|---3-3-3-3-3-3-3-3-3-3-3-3-|---5--5-5-5-5-5-5-5-5-5-5-5----|
|---3-3-3-3-3-3-3-3-3-3-3-3-|---5--5-5-5-5-5-5-5-5-5-5-5----|
|---4-4-4-4-4-4-4-4-4-4-4-4-|---6--6-6-6-6-6-6-6-6-6-6-6----|
|---5-5-5-5-5-5-5-5-5-5-5-5-|---7--7-7-7-7-7-7-7-7-7-7-7----|
|---5-5-5-5-5-5-5-5-5-5-5-5-|---7--7-7-7-7-7-7-7-7-7-7-7----|
|---3-3-3-3-3-3-3-3-3-3-3-3-|---5--5-5-5-5-5-5-5-5-5-5-5----|


  F#m
   H            Q      Q        H            H
|-19-----------17------------|-17-----------15-----------|
|---------------------15-----|---------------------------|
|-16-----------14------------|-14-----------12-----------|
|---------------------12-----|---------------------------|
|----------------------------|---------------------------|
|----------------------------|---------------------------|
|
|  E S S E S S  E S S  E S S    E S S E S S  E S S E S S
|--2-2-2-2-2-2--2-2-2--2-2-2-|--2-2-2-2-2-2--2-2-2-2-2-2-|
|--2-2-2-2-2-2--2-2-2--2-2-2-|--2-2-2-2-2-2--2-2-2-2-2-2-|
|--2-2-2-2-2-2--2-2-2--2-2-2-|--2-2-2-2-2-2--2-2-2-2-2-2-|
|--4-4-4-4-4-4--4-4-4--4-4-4-|--4-4-4-4-4-4--4-4-4-4-4-4-|
|--4-4-4-4-4-4--4-4-4--4-4-4-|--4-4-4-4-4-4--4-4-4-4-4-4-|
|--2-2-2-2-2-2--2-2-2--2-2-2-|--2-2-2-2-2-2--2-2-2-2-2-2-|


  Bm                           G            A
   H            Q      Q        H            H
|-14-------------------------|------------------------------|
|----------------------------|-19-----------17--------------|
|-11-----------15-----16-----|------------------------------|
|----------------------------|-16-----------14--------------|
|--------------13-----14-----|------------------------------|
|----------------------------|------------------------------|
|
|  E S S E S S  E S S  E S S    E S S E S S  E S S E S S
|--2-2-2-2-2-2--2-2-2--2-2-2-|--3-3-3-3-3-3--5-5-5-5-5-5----|
|--3-3-3-3-3-3--3-3-3--3-3-3-|--3-3-3-3-3-3--5-5-5-5-5-5----|
|--4-4-4-4-4-4--4-4-4--4-4-4-|--4-4-4-4-4-4--6-6-6-6-6-6----|
|--4-4-4-4-4-4--4-4-4--4-4-4-|--5-5-5-5-5-5--7-7-7-7-7-7----|
|--2-2-2-2-2-2--2-2-2--2-2-2-|--5-5-5-5-5-5--7-7-7-7-7-7----|
|----------------------------|--3-3-3-3-3-3--5-5-5-5-5-5----|


  D                            Bm
   H.                  Q        Q      Q      Q      Q
|----------------------------|-----------------------------|
|-19------------------19-----|-20-----19-----17-----15-----|
|----------------------------|-----------------------------|
|-16------------------16-----|-17-----16-----14-----12-----|
|----------------------------|-----------------------------|
|----------------------------|-----------------------------|
|
|  E  S S E S S E S S  E S S    E S S  E S S  E S S  E S S
|--5--5-5-5-5-5-5-5-5--5-5-5-|--2-2-2--2-2-2--2-2-2--2-2-2-|
|--7--7-7-7-7-7-7-7-7--7-7-7-|--3-3-3--3-3-3--3-3-3--3-3-3-|
|--7--7-7-7-7-7-7-7-7--7-7-7-|--4-4-4--4-4-4--4-4-4--4-4-4-|
|--7--7-7-7-7-7-7-7-7--7-7-7-|--4-4-4--4-4-4--4-4-4--4-4-4-|
|--5--5-5-5-5-5-5-5-5--5-5-5-|--2-2-2--2-2-2--2-2-2--2-2-2-|
|----------------------------|-----------------------------|


  G                            A
   H.                  Q        Q      Q      Q      Q
|----------------------------|--------------------------------|
|-17------------------15-----|-19-----17-----15-----17--------|
|----------------------------|--------------------------------|
|-14------------------12-----|-16-----14-----12-----14--------|
|----------------------------|--------------------------------|
|----------------------------|--------------------------------|
|
|  E  S S E S S E S S  E S S    E S S  E S S  E S S  E S S
|--3--3-3-3-3-3-3-3-3--3-3-3-|--5-5-5--5-5-5--5-5-5--5-5-5----|
|--3--3-3-3-3-3-3-3-3--3-3-3-|--5-5-5--5-5-5--5-5-5--5-5-5----|
|--4--4-4-4-4-4-4-4-4--4-4-4-|--6-6-6--6-6-6--6-6-6--6-6-6----|
|--5--5-5-5-5-5-5-5-5--5-5-5-|--7-7-7--7-7-7--7-7-7--7-7-7----|
|--5--5-5-5-5-5-5-5-5--5-5-5-|--7-7-7--7-7-7--7-7-7--7-7-7----|
|--3--3-3-3-3-3-3-3-3--3-3-3-|--5-5-5--5-5-5--5-5-5--5-5-5----|


  D
   W                          +H            H
|--------------------------|----------------------------||
|-15-----------------------|-(15)-----------------------||
|--------------------------|----------------------------||
|-12-----------------------|-(12)-----------------------||
|--------------------------|----------------------------||
|--------------------------|----------------------------||
|
|  E S S E S S E S S E S S     E  S S E S S E S S E S S
|--5-5-5-5-5-5-5-5-5-5-5-5-|---5--5-5-5-5-5-5-5-5-5-5-5-||
|--7-7-7-7-7-7-7-7-7-7-7-7-|---7--7-7-7-7-7-7-7-7-7-7-7-||
|--7-7-7-7-7-7-7-7-7-7-7-7-|---7--7-7-7-7-7-7-7-7-7-7-7-||
|--7-7-7-7-7-7-7-7-7-7-7-7-|---7--7-7-7-7-7-7-7-7-7-7-7-||
|--5-5-5-5-5-5-5-5-5-5-5-5-|---5--5-5-5-5-5-5-5-5-5-5-5-||
|--------------------------|----------------------------||


  D                           N.C.
   H.                 Q        H.      Q
|---------------------------|---------------|
|---------------------------|-10------------|
|-11------------------------|-11------------|
|-12------------------------|---------------|
|---------------------------|---------------|
|---------------------------|---------------|
|
|           >
|  E  S S E S S E S S E S S    W
|--5--5-5-5-5-5-5-5-5-5-5-5-|---------------|
|--7--7-7-7-7-7-7-7-7-7-7-7-|---------------|
|--7--7-7-7-7-7-7-7-7-7-7-7-|---------------|
|--7--7-7-7-7-7-7-7-7-7-7-7-|---------------|
|--5--5-5-5-5-5-5-5-5-5-5-5-|---------------|
|---------------------------|---------------|


  Gtr I
   W           +H.      Q       H.      Q     H.      Q    3x
|-10--------|-(10)---------||--10----------|-10------------||
|-10--------|-(10)---------||o-10----------|-10-----------o||
|-----------|--------------||--------------|---------------||
|-----------|--------------||--------------|---------------||
|-----------|--------------||o-------------|--------------o||
|-----------|--------------||--------------|---------------||


Duration Legend
---------------
W - whole; H - half; Q - quarter; E - 8th; S - 16th; T - 32nd; X - 64th; a - acciaccatura
+ - note tied to previous; . - note dotted; .. - note double dotted
Uncapitalized letters represent notes that are staccato (1/2 duration)
Irregular groupings are notated above the duration line
Duration letters will always appear directly above the note/fret number it represents the
duration for.  Duration letters with no fret number below them represent rests.  Multi-
bar rests are notated in the form Wxn, where n is the number of bars to rest for.  Low
melody durations appear below the staff

Tablature Legend
----------------
 h   - hammer-on
 p   - pull-off
 b   - bend
 pb  - pre-bend
 r   - bend release (if no number after the r, then release immediately)
 /\  - slide into or out of (from/to "nowhere")
 s   - legato slide
 S   - shift slide
  - natural harmonic
[n]  - artificial harmonic
n(n) - tapped harmonic
 ~   - vibrato
 tr  - trill
 T   - tap
 TP  - trem. picking
 PM  - palm muting
\n/  - tremolo bar dip; n = amount to dip
 \n  - tremolo bar down
 n/  - tremolo bar up
/n\  - tremolo bar inverted dip
 =   - hold bend; also acts as connecting device for hammers/pulls
 <>  - volume swell (louder/softer)
 x   - on rhythm slash represents muted slash
 o   - on rhythm slash represents single note slash

Misc Legend
-----------
 |  - bar
||  - double bar
||o - repeat start
o|| - repeat end
*|  - double bar (ending)
 :  - bar (freetime)
 $  - Segno
 &  - Coda
Tempo markers -  = BPM(8/16=s8/s16), where s8 = swing 8ths, s16 = swing 16ths
Добавлено: 27.05.2016
Другие материалы по этой песне:

Страница создана 02.05.2016
http://primanota.ru/tornados/telstar-chords.htm
Привет, Гость.
Предлагаем пройти революционный курс по гитаре.
Подарок от PrimaNota.Ru, забирай!