PrimaNota.ru - самый крупный в мире бесплатный архив песенных текстов, аккордов, табулатур и нот


Torkel Rasmusson - Resan - аккорды и текст, видео

Регистрация Запомнить меня
Войти через:  Facebook Google Twitter Vk Yandex Mail.ru

Torkel Rasmusson - Resan - аккорды и текст, видео

Печатать
Просмотров: 103
Resan
Torkel Rasmusson
Torkel Rasmusson - Resan (1984)
Ackord 10/1-2015 av Jon Malmin (jogusmal@hotmail.com)
Stämning: EADGBe

Intro: G

    G
Jag reste genom landet
                          Em
Jag såg en massa träd och hus och åkrar och fabriker
                            G
Och där stod barn som tända ljus
                        D                         Em
I brinnande små klungor, stod alla barnen där och log
                                                             G
Och sjöng en sång om livet, tills dom hade fått nog och dog
(G)                                               Em
Den tända barnaskaran var bland det hemskaste jag sett
                                                   Am
Men kanske brann det inte, det var väl mest ett talesätt

     G          C     G
Jag ville inte resa sådär
    Am             
Det kostade för mycket, det tog för lång tid, lång tid
    G             C       G
Jag ville hellre stanna kvar
        Am
För jag tycks ändå aldrig nå dit jag vill utan bredvid, bredvid
               G                   C
Men jag reste vidare i alla fall, vidare
    Am    G                    C
Jag reste vidare i alla fall, vidare
    Am    G
Jag reste vidare

    G
Jag kom nån gång på natten
                        Em
Fram till en välbekant basar för hågkomster och drömmar
                             G
Fast det fanns nästan inget kvar
                      D                        Em
Bara kvarglömda minnen av bleknad glädje eller sorg
                                                         G
Där fick jag syn på pappa, som stod och grävde i en korg
(G)                                              Em
Han tog en massa smutstvätt och kastade den i en hög
                                                      G
Och ville klä sig smutsigt, men det var ingenting som dög
                                                 Em
Vad gjorde pappa så för? Det kunde han väl låtit bli
                                             Am
Han såg mig säkert inte, så jag åkte bara förbi

     G          C     G
Jag ville inte resa sådär
    Am             
Det kostade för mycket, det tog för lång tid, lång tid
    G             C       G
Jag ville hellre stanna där
        Am
Men jag tycks ju inte nå dit jag vill utan bredvid, bredvid
               G                   C
För jag reste vidare i alla fall, vidare
    Am    G                    C
Jag reste vidare i alla fall, vidare
    Am    G
Jag reste vidare

    G
Jag färdades i dimma, i snöyra och slaskig dy
Em                                                        G
Snart kom jag till ett vägskäl, där låg en vänligt sinnad by
                      D                       Em
Här bodde inga bönder, de hade dött för länge sen
                                           G
Nu glittrade bygatan av borgerliga leenden
(G)                                                  Em
En flod flöt lugnt och stilla, en sol strålade lagom hett
                                                 G
På alla vackra husen där livet levdes rätt och lätt
                                                     Em
Och fåglar sjöng i träden, men sjöng dom på sin fågelsång
                                                G
Så enträget och vackert, av fri vilja eller av tvång?
                           D                            Em
När moln av guld och silver for runt som skyddsänglar i skyn
                                                        Am
De fick mig sänka blicken och snarast möjligt lämna byn

Solo (I 5/4-takt, rätt svårbegripligt men jag försöker mig på en tabulatur):

     G                             C                 (Am)
e||-----------------------------|-----------------------------|
B||-------------------------15--|--15----17--15---------------|
G||--16---------------16--------|-----------------------------|
D||-----------------------------|-----------------------------|
A||-----------------------------|-----------------------------|
E||-----------------------------|-----------------------------|
 
  G                            C                     (Am)
----------------------------|----------------------------------|
----------------------------|----------------------------------|
--16----------------16--14--|------14----16--------------------|
----------------------------|--17------------17------------17--|
----------------------------|----------------------------------|
----------------------------|----------------------------------|
 
 G                                C                (Am)
-------------------------------|--------------------------------|
-------------------------------|--------------------------------|
-----14------------------------|----------------------------14--|
-------------------------------|--14------14----17----17--------|
---------17------------17--17--|--------------------------------|
-------------------------------|--------------------------------|
 
  G                             C                   (Am)
-----------------------------|--------------------------------|
-------------------------15--|--15----17--15------------------|
--16---------------16--------|------------------16--------16--|
-----------------------------|--------------------------------|
-----------------------------|--------------------------------|
-----------------------------|--------------------------------|
 
  G                                  C             (Am)
----------------------------------|--------------------------------|
--15----17--15--------------------|--------------------------------|
------------------16----14--------|--14----16------------------14--|
------------------------------17--|------------17--------17--------|
----------------------------------|--------------------------------|
----------------------------------|--------------------------------|
 
  G                               C                 (Am)
-------------------------------|--------------------------15----|
-------------------------------|--------------15----17----------|
--16---------------------------|--14----16----------------------|
---------------------14----17--|--------------------------------|
--------17--.------------------|--------------------------------|
-------------------------------|--------------------------------|
 
  G                                   C                (Am)
--17--19-----------19--17--15--17--|-----19--15------------15--------|
-----------------------------------|-----------------17--------15----|
-----------------------------------|---------------------------------|
-----------------------------------|---------------------------------|
-----------------------------------|---------------------------------|
-----------------------------------|---------------------------------|
 
 G                                   C                   (Am)             (G)
----------------------------------|------------------------------------|
--15------------------------------|------------------------------------|
----------16----16----17--16--14--|------14----16--------------14------|
----------------------------------|--17------------17----17------------|
----------------------------------|--------------------------------17--|
----------------------------------|------------------------------------|
 

     G                                        Em
Jag fortsatte att resa, drev vidare ur hamn i hamn
                                                G
Och lyssnade på vinden, som lystet viskade mitt namn
                       D                      Em
Och såg i havets vågor, min egen bild glida förbi
                                                   G
En frånstötande nidbild jag spottade och spydde i
(G)                                        Em
En bild av ensamheten som havet envist återgav
                                                    Am
Men jag ville ha sällskap, och därför mönstrade jag av

     G          C     G
Jag ville inte resa sådär
    Am             
Det kostade för mycket, det tog för lång tid, lång tid
    G             C       G
Jag ville hellre stanna nu
        Am
Men jag tycks ju aldrig nå dit jag vill utan bredvid, bredvid
             G                   C
Så jag reste vidare i alla fall, vidare
    Am    G                    C
Jag reste vidare i alla fall, vidare
    Am    G
Jag reste vidare

G                                         Em
Jag träffade en kvinna som väntade i en kupé
                                               G
Jag såg i hennes ögon, det var ett lidande att se
                     D                          Em
Naturen var förgiftad, allting förfelat som jag såg
                                                     G
Då tog jag tag i henne, vi var två främlingar på tåg
                                                Em
Och hon blev till en glänta där löven grönskade igen
                                                   G
Och jag det rena vattnet som rann och rann igenom den
                                                      Em
Och sedan var hon vatten, och då var jag ett törstigt djur
                                                   Am
Hon drog mig ner i djupet, då lyckades jag dra mig ur

     G          C     G
Jag ville inte resa sådär
    Am             
Det kostade för mycket, det tog för lång tid, lång tid
    G             C         G
Jag skulle kanske stanna kvar
        Am
Men jag tycks ju aldrig nå dit jag vill utan bredvid, bredvid
               G                   C
Och jag reste vidare i alla fall, vidare
    Am    G                    C
Jag reste vidare i alla fall, vidare
    Am    G
Jag reste vidare

     G                                                
Med månen mest som gulsot, och solen som ett sotat glas
Em                                           G
Kunde jag inte skilja ens mellan avund och extas
                    D                     Em
Som i en tavla målad med så smetiga penseldrag
                                                       G
Och nersmutsade färger att jag tog fel på natt och dag
(G)                                                        Em
Det var så mörkt och rörigt, jag såg knappt längre var jag var
                                                  G
Här var det många andra som också hade dröjt sig kvar
                                               Em
En del skrek högt av fasa när döden hotade med kniv
                                                       G
Och resten gick och gnällde för att det var sånt jävla liv
                         D                     Em
Då drog jag mig tillbaka, jag ville inte klaga så
                                                       Am
Jag började gå hemåt, fast det var mycket långt att gå...

G     C       Am
Vii...iidare, 
G     C       Am
Vii...iidare,  
G
Vidare
Добавлено: 02.08.2015
Другие материалы по этой песне:
  • Аккорды и текст

Страница создана 02.08.2015
http://primanota.ru/torkel-rasmusson/resan-chords.htm
Привет, Гость.
Предлагаем пройти революционный курс по гитаре.
Подарок от PrimaNota.Ru, забирай!