PrimaNota.ru - самый крупный в мире бесплатный архив песенных текстов, аккордов, табулатур и нот


Tori Kelly - Treasure - аккорды и текст, таба, видео

Регистрация Запомнить меня
Войти через:  Facebook Google Twitter Vk Yandex Mail.ru

Tori Kelly - Treasure - аккорды и текст, таба, видео

Печатать
Просмотров: 159
Уроки эстрадного вокала в Санкт-Петербурге
Treasure
Tori Kelly
Capo 1st fret

* * * * * * * * * * * * * * * * * * * * * * * * * * * * * * * * *

Chords used throughout:

   A7M     G7M     D7M     B7M     C7M  
e|---x---|---x---|--x----|---x---|---x---|
B|---5---|---3---|--10---|---6---|---8---|
G|---6---|---4---|--11---|---7---|---9---|
D|---6---|---4---|--11---|---7---|---9---|
A|---x---|---x---|--x----|---x---|---x---|
E|---5---|---3---|--10---|---6---|---8---|


* * * * * * * * * * * * * * * * * * * * * * * * * * * * * * * * *


[Intro tab]

(You can play this tab for the entire song,
or start strumming the chords above.)

          A7M  
e|-----------------------|-----------------------|
B|-----------------------|-----------------------|
G|-----------------------|-----------------------|
D|--------6-------6------|--------6-------6------|
A|----4-------4-------4--|----4-------4-------4--|
E|--5---5---5---5---5---5|--5---5---5---5---5---5|

          G7M  
e|-----------------------|-----------------------|
B|-----------------------|-----------------------|
G|-----------------------|-----------------------|
D|--------4-------4------|--------4-------4------|
A|----2-------2-------2--|----2-------2-------2--|
E|--3---3---3---3---3---3|--3---3---3---3---3---3|

          D7M  
e|-------------------------------|-------------------------------|
B|-------------------------------|-------------------------------|
G|-------------------------------|-------------------------------|
D|----------11---------11--------|----------11---------11--------|
A|-----9----------9----------9---|-----9----------9----------9---|
E|--10---10----10---10----10---10|--10---10----10---10----10---10|


          B7M  
e|-----------------------|-----------------------|
B|-----------------------|-----------------------|
G|-----------------------|------------7----------|
D|--------7-------7------|--------7-------7------|
A|----5-------5-------5--|----5------------------|
E|--6---6---6---6---6---6|--6---6---6---6--------|


* * * * * * * * * * * * * * * * * * * * * * * * * * * * * * * * *


[Intro]
(Play the tab above or strum these chords)

A7M    G7M    D7M    B7M  



[Verse 1]

A7M                   G7M  
I was not waiting for your love
              D7M  
Before it was all on this shore
         B7M  
Darling, I never really get this feeling in my chest


[Chorus]

A7M  
It's a new day to discover, so many things to uncover
G7M  
Even when the tide is high, out here it's just you and I
D7M  
Perfect how we fit together, being around you is a pleasure
B7M  
Like the way gold lasts forever, I feel like I found my treasure


[Verse 2]

A7M                    G7M  
When I first fell into those deep blues in your eyes
D7M  
I thought I would be fine
      B7M  
'Cause I never really get this feeling in my chest


[Chorus]

A7M  
It's a new day to discover, so many things to uncover
G7M  
Even when the tide is high, out here it's just you and I
D7M  
Perfect how we fit together, being around you is a pleasure
B7M  
Like the way gold lasts forever, I feel like I found my treasure


[Bridge]

A7M  
I wasn't even looking for you, my skies were already blue
G7M  
Now you're what I hold on to, these eyes are fixed on you
D7M                                                      B7M  
When did love come into play? I could never turn away n - o - o - w


[Chorus]

A7M  
It's a new day to discover, so many things to uncover
G7M  
Even when the tide is high, out here it's just you and I
D7M  
Perfect how we fit together, being around you is a pleasure
B7M  
Like the way gold lasts forever, I feel like I found my treasure


[Outro]

D7M    A7M    C7M    G7M    (4x)
Добавлено: 06.12.2017
Другие материалы по этой песне:
  • Аккорды и текст

Страница создана 11.09.2013
http://primanota.ru/tori-kelly/treasure-chords.htm
Привет, Гость.
Предлагаем пройти революционный курс по гитаре.
Подарок от PrimaNota.Ru, забирай!