PrimaNota.ru - самый крупный в мире бесплатный архив песенных текстов, аккордов, табулатур и нот


Tori Kelly - Pretty Young Thing - таба, видео

Регистрация Запомнить меня
Войти через:  Facebook Google Twitter Vk Yandex Mail.ru

Tori Kelly - Pretty Young Thing - таба, видео

Печатать
Просмотров: 108
heey :)
check out my tutorial: http://www.youtube.com/watch?v=2Z8yvWnP3gM
and cover: http://www.youtube.com/watch?v=YX0XrYcHx2Y

okay so i'm going to post the chords i don't know the names of them sorry but here you go.
verses: where did you come from baby?
E|-x--x------x------x-------x---|
B|-x--x------x------x-------x---|
G|-9--9------11-----13------14--|
D|-9--9------11-----13------14--|
A|-x--x------x------x-------x---|
E|-9--9------11-----12------14--|

and oooh wont you take me there..
E|-x-----0------|
B|-x-----0------|
G|-6-----9------|
D|-6-----9------|
A|-x-----x------|
E|-5-----9------|

then repeat :)

..Prechorus

E|-x--x--x-------|
B|-x--x--x-------|
G|-6--4--9-------|
D|-6--4--9-------|
A|-x--x--x-------|
E|-5--4--9-------|

E|-x--x--x-------|
B|-x--x--x-------|
G|-6--4--11------|
D|-6--4--11------|
A|-x--x--x-------|
E|-5--4--10------|

chorus:
   D U   D  D (thats how i play it)
E|-x-x---x--x----7--|
B|-x-x---x--x----7--|
G|-2-2---4--6----8--|        repeat
D|-2-2---4--x----9--|
A|-x-x---x--6----9--|
E|-2-2---4--5----7--|

and i'll take you theere:

E|-0----x--x----0--|
B|-0----x--x----0--|
G|-6----4--2-/--9--|
D|-6----4--x-/--9--|
A|-x----x--2----x--|
E|-5----4--2-/--9--|
Добавлено: 09.11.2013
Другие материалы по этой песне:
  • Аккорды и текст

Страница создана 06.10.2013
http://primanota.ru/tori-kelly/pretty-young-thing-chords.htm
Привет, Гость.
Предлагаем пройти революционный курс по гитаре.
Подарок от PrimaNota.Ru, забирай!