PrimaNota.ru - самый крупный в мире бесплатный архив песенных текстов, аккордов, табулатур и нот


Tori Kelly - Bring Me Home - таба, видео

Регистрация Запомнить меня
Войти через:  Facebook Google Twitter Vk Yandex Mail.ru

Tori Kelly - Bring Me Home - таба, видео

Печатать
Просмотров: 66
-------------------------------------------------------------------------------
                             Bring Me Home - Tori Kelly
-------------------------------------------------------------------------------
Tuning:EADGBe
Capo 3th fret

Intro
e|---0-0-0-0---0-0-0-0---0-0-0-0---0-0-0-0---|
B|---0-0-0-0---0-0-0-0---0-0-0-0---2-2-2-2---|
G|---9-9-9-9---9-9-9-9---7-7-7-7---0-0-0-0---|
D|---9-9-9-9---9-9-9-9---7-7-7-7---3-3-3-3---|
A|---7-7-7-7---7-7-7-7---5-5-5-5---0-0-0-0---|
E|-------------8-8-8-8-----------------------| 2x

Verse 1:
e|---0-0-0-0---0-0-0-0---0-0-0-0---0-0-0-0---|
B|---0-0-0-0---0-0-0-0---0-0-0-0---2-2-2-2---|
G|---9-9-9-9---9-9-9-9---7-7-7-7---0-0-0-0---|
D|---9-9-9-9---9-9-9-9---7-7-7-7---3-3-3-3---|
A|---7-7-7-7---7-7-7-7---5-5-5-5---0-0-0-0---|
E|-------------8-8-8-8-----------------------| 2x
I've been so lost
Wandering in the dark
I feel secluded
Lonely, disconnected

Chorus:
e|--0--0--0--0---0--0--0--0---0-0-0-0-0-0-0-0--|
B|--0--0--0--0---0--0--0--0---0-0-0-0-0-0-0-0--|
G|--6--4--6--4---6--4--9--4---2-2-2-2-2-2-2-2--|
D|--6--4--6--4---6--4--9--4---2-2-2-2-2-2-2-2--|
A|--4--2--4--2---4--2--7--2---0-0-0-0-0-0-0-0--|
E|---------------------------------------------|
This is me standing here
Saying I need you
Lavish me with your love
I thrive off of you
e|--0-0-0-0--0-0-0-0--|
B|--0-0-0-0--0-0-0-0--|
G|--5-5-5-5--1-1-1-1--|
D|--5-5-5-5--2-2-2-2--|
A|--3-3-3-3--2-2-2-2--|
E|-----------0-0-0-0--|
I try to live alone
But you always bring me home


Verse 2
e|---0-0-0-0---0-0-0-0---0-0-0-0---0-0-0-0---|
B|---0-0-0-0---0-0-0-0---0-0-0-0---2-2-2-2---|
G|---9-9-9-9---9-9-9-9---7-7-7-7---0-0-0-0---|
D|---9-9-9-9---9-9-9-9---7-7-7-7---3-3-3-3---|
A|---7-7-7-7---7-7-7-7---5-5-5-5---0-0-0-0---|
E|-------------8-8-8-8-----------------------| 2x
Calling your name
Reaching out for your warm embrace
I feel so safe
Your love is like visual sound
Like a dream so vivid


Chorus:
e|--0--0--0--0---0--0--0--0---0-0-0-0-0-0-0-0--|
B|--0--0--0--0---0--0--0--0---0-0-0-0-0-0-0-0--|
G|--6--4--6--4---6--4--9--4---2-2-2-2-2-2-2-2--|
D|--6--4--6--4---6--4--9--4---2-2-2-2-2-2-2-2--|
A|--4--2--4--2---4--2--7--2---0-0-0-0-0-0-0-0--|
E|---------------------------------------------|
This is me standing here
Saying I need you
Lavish me with your love
I thrive off of you
e|--0-0-0-0--0-0-0-0--|
B|--0-0-0-0--0-0-0-0--|
G|--5-5-5-5--1-1-1-1--|
D|--5-5-5-5--2-2-2-2--|
A|--3-3-3-3--2-2-2-2--|
E|-----------0-0-0-0--|
I try to live alone
But you always bring me home


Bridge:
e|--0-0-0-0-0-0-0-0--0-0-0-0-0-0-0-0--0-0-0-0-0-0-0-0--|
B|--2-2-2-2-2-2-2-2--0-0-0-0-0-0-0-0--0-0-0-0-0-0-0-0--|
G|--2-2-2-2-2-2-2-2--2-2-2-2-2-2-2-2--1-1-1-1-1-1-1-1--|
D|--2-2-2-2-2-2-2-2--2-2-2-2-2-2-2-2--2-2-2-2-1-1-1-1--|
A|-------------------0-0-0-0-0-0-0-0--2-2-2-2-2-2-2-2--|
E|--2-2-2-2-2-2-2-2-------------------0-0-0-0-0-0-0-0--|
You always bring me back where I belong
You always pull me back into your arms
Everytime I'm with you, it's like I'm brand new

e|--0-0-0-0-0-0-0-0--0-0-0-0-0-0-0-0--0-0-0-0-0-0-0-0--|
B|--2-2-2-2-2-2-2-2--0-0-0-0-0-0-0-0--0-0-0-0-0-0-0-0--|
G|--2-2-2-2-2-2-2-2--2-2-2-2-2-2-2-2--1-1-1-1-1-1-1-1--|
D|--2-2-2-2-2-2-2-2--2-2-2-2-2-2-2-2--2-2-2-2-1-1-1-1--|
A|-------------------0-0-0-0-0-0-0-0--2-2-2-2-2-2-2-2--|
E|--2-2-2-2-2-2-2-2-------------------0-0-0-0-0-0-0-0--|
You always bring me back where I belong
You always pull me back into your arms
Everytime I'm with you, it's like I'm brand new

e|--0-0-0-0-0-0-0-0--0-0-0-0-0-0-0-0--|
B|--2-2-2-2-2-2-2-2--2-2-2-2-2-2-2-2--|
G|--2-2-2-2-2-2-2-2--2-2-2-2-2-2-2-2--|
D|--2-2-2-2-2-2-2-2--2-2-2-2-2-2-2-2--|
A|-------------------0-0-0-0-0-0-0-0--|
E|--2-2-2-2-2-2-2-2-------------------|
I feel so free, you're all I need

Chorus:
e|--0--0--0--0---0--0--0--0---0-0-0-0-0-0-0-0--|
B|--0--0--0--0---0--0--0--0---0-0-0-0-0-0-0-0--|
G|--6--4--6--4---6--4--9--4---2-2-2-2-2-2-2-2--|
D|--6--4--6--4---6--4--9--4---2-2-2-2-2-2-2-2--|
A|--4--2--4--2---4--2--7--2---0-0-0-0-0-0-0-0--|
E|---------------------------------------------|
This is me standing here
Saying I need you
Lavish me with your love
I thrive off of you
e|--0-0-0-0--0-0-0-0--|
B|--0-0-0-0--0-0-0-0--|
G|--5-5-5-5--1-1-1-1--|
D|--5-5-5-5--2-2-2-2--|
A|--3-3-3-3--2-2-2-2--|
E|-----------0-0-0-0--|
I try to live alone
But you always bring me home
Добавлено: 20.04.2016
Другие материалы по этой песне:
  • Аккорды и текст

Страница создана 20.04.2016
http://primanota.ru/tori-kelly/bring-me-home-chords.htm
Привет, Гость.
Предлагаем пройти революционный курс по гитаре.
Подарок от PrimaNota.Ru, забирай!