PrimaNota.ru - самый крупный в мире бесплатный архив песенных текстов, аккордов, табулатур и нот


Torfrock - Gerner Werner - аккорды и текст, видео

Регистрация Запомнить меня
Войти через:  Facebook Google Twitter Vk Yandex Mail.ru

Torfrock - Gerner Werner - аккорды и текст, видео

Печатать
Просмотров: 129
Gerner Werner
Torfrock
Torfrock - Gerner Werner [Chord / Tab] (Akkorde / Noten)

[Intro]
 A   D   A   E A

[Verse 1]
A
Jeden Morgen geh inne Lehre
D				A
Ich glaub nicht das ich dahin gehöre
E				     F#      D
Wenn ich zu viel wurschtel und kein Spaß hab
		    E	          A
Bin ich krank weil ich nen guten Arzt hab.

[Riff]
A
Wenn ich denn zuhause rumgehockt hab,
D				A
Weiss ich wieder worauf ich so Bock hab.
E			  	F#   D
Auffe Arbeit bin ich gelobt und wenig.
	    E	            A
Aber auffn Asphalt bin ich König.


[Chorus]
	      D
Ich schüssel gerne in die Ferne
	  A
geh zur Arbeit nicht so gerne.
       E		     A
Dafür bin ich um so gerner Werner
	   D
Hab keine Böcke auf Kaserne
	  A
Gieß mir ein auf die Laterne
	E
Ich bin gerne so
		      D
Und noch viel gerner Werner... Werner (joo)


[Verse 2]
A
Wenn der Meister auffn Bau mich sehn kann,
D				    A
Tu ich schufften bis ich kaum noch stehn kann.
E		                   F#      D
Und is keiner da der auf mich aufpasst,
		E
Bau ich mir ne Bombe oder sauf was.


[Chorus] x2

___________

[Lead Guitar]

----------------------4-5--5—-5h7p5---5----------------------5-7-7-7b9-7-7~-|
-5~--5~--5h7p5---5--7---------------7----5~--5~--5h7p5---5-7----------------|
---------------7---------------------------------------7--------------------|
----------------------------------------------------------------------------|
----------------------------------------------------------------------------|
----------------------------------------------------------------------------|

[Riff]

----------------------|
--------5---------7-5-|
-5555-7----5555-7-----|
----------------------|
----------------------|
----------------------|


[Chorus]

--------------------------------------------------------|
--------------------------------------------------------|
---4-6-7-7777-9-7-6-4-6666-7-6-4---4444-7-6--4-6--------|
-7-------------------------------7----------------------|
--------------------------------------------------------|
--------------------------------------------------------|

--------------------------------------------------------|
--------------------------------------------------------|
---4-6-7-7777-9-7-6-4-6666-7-6-4---4444-7-6--4-4----6-4-|
-7-------------------------------7----------------------|
--------------------------------------------------------|
--------------------------------------------------------|


Please rate this tab!!!
For supplements or proposals leave a message.
http://profile.ultimate-guitar.com/pommes_fritz/

Bitte bewerten!!!
Für Verbesserungsvorschläge/Ergänzungen geht auf mein Profil und hinterlasst mir
einfach eine Nachricht.
Добавлено: 18.05.2012
Другие материалы по этой песне:
  • Аккорды и текст

Страница создана 18.05.2012
http://primanota.ru/torfrock/gerner-werner-chords.htm
Привет, Гость.
Предлагаем пройти революционный курс по гитаре.
Подарок от PrimaNota.Ru, забирай!