PrimaNota.ru - самый крупный в мире бесплатный архив песенных текстов, аккордов, табулатур и нот


Tore W. Aas - Herre Denne Dag Er Din - бас-таба, видео

Регистрация Запомнить меня
Войти через:  Facebook Google Twitter Vk Yandex Mail.ru

Tore W. Aas - Herre Denne Dag Er Din - бас-таба, видео

Печатать
Просмотров: 28
Уроки эстрадного вокала в Санкт-Петербурге
Herre, denne dag er din
Written by: Tore W.Aas
Version:    As song by Reflex
Tabbed by:  andsli04

Standard tuning

Verse 1
 |   1   2   3   4|   1   2   3   4|   1   2   3   4|   1   2   3   4|
G|----------------|----------------|----------------|----------------|
D|--3------------0|---1------------|3h5-------------|---3------------|
A|---1------------|----------------|---3------------|--3-------3-----|
E|----------------|----------------|----------------|-----------1----|

 |   1   2   3   4|   1   2   3   4|   1   2   3   4|   1   2   3   4|
G|----------------|----------------|----------------|----------------|
D|3p1------------3|-0--------------|---1------------|---3------------|
A|---1------------|---0----3h5-----|-----------3----|--3-------3-----|
E|----------------|-----------3---3|----------------|-----------1----|

 |   1   2   3   4|   1   2   3   4|   1   2   3   4|   1   2   3   4|
G|----------------|----------------|---5-----------7|-8-10-----------|
D|---------------0|---1------------|-5--------------|---------10-----|
A|---1------------|----------------|----------------|-----------8---8\
E|----------------|----------------|----------------|----------------|

 |   1   2   3   4 |    1   2   3   4|   1   2   3   4|   1   2   3   4|
G|-----------------|----2----5h7-----|----------------|----------------|
D|---------------0h1h3----------5----|5\-1------------|-5-3------------|
A|---1-------------|-----------------|-----------3----|----------3-----|
E|-----------------|-----------------|----------------|-----------1----|


Chorus
 |   1   2   3   4|   1   2   3   4|   1   2   3   4|   1   2   3   4|
G|----------------|----------------|----------------|---------5------|
D|----------------|----------------|---1-----1-0----|--------x--3----|
A|---1-----1-0----|----------------|----------------|---3------------|
E|----------------|-3-------3-3----|----------------|---------------1|

 |   1   2   3   4|   1   2   3   4|   1   2   3   4|   1   2   3   4|
G|----------------|----------------|----------------|-------3--------|
D|-0h1-----1-1----|-1-0----3-1-----3h5p3-----3-1----|-1-0--3--1------|
A|3---------------|----------------|----------------|----------------|
E|----------------|----------------|----------------|----------------|

 |   1   2   3   4|   1   2   3   4|   1   2   3   4 |    1   2   3   4|
G|----------------|-----------2----|5-7--------------|----------------10
D|1p0--------3-3--|-3------1-3-----|---5-----------8p7-5-------8-10----|
A|---3-----3------|---1------------|-----------------|--8p6-------8----|
E|----------------|----------------|-----------------|-----------------|

 |         1   2   3   4|
G|h12p10----------------|
D|----------------------|
A|------12/13---------13\
E|----------------------|



Verse 2
 |   1   2   3   4|   1   2   3   4|   1   2   3   4|   1   2   3   4|
G|----------------|----------------|----------------|-5--------------|
D|---------------0|---1-------1----|----------------|---3------------|
A|---1-------1----|----------------|---3-------3----|---------3------|
E|----------------|----------------|----------------|-----------1----|

 |   1   2   3   4|    1   2   3   4|   1   2   3   4|   1   2   3   4|
G|----------------|----2----3h5-----|----------------|-5--------------|
D|---------------0h1h3---------5---5|-3--------------|---3-------3----|
A|---1-------1----|-----------------|---6-----6-3----|----------3--3--|
E|----------------|-----------------|----------------|---------------1|

 |   1   2   3   4|   1   2   3   4|   1   2   3   4|   1   2   3   4|
G|----------------|----------------|----------------|----------------|
D|---------------0|-3-1-------1----|----------------|----------------|
A|---1-------1----|----------------|---3-------3----|-3--------------|
E|----------------|----------------|----------------|---1-----1-1----|

 |   1   2   3   4|   1   2   3   4|   1   2   3   4|   1   2   3   4|
G|----------------|---2----5h7-----|---------------5|----------------|
D|---------------0|-3---------5----|5p3-------------|-5-3------------|
A|---1-------1----|----------------|---6-----6-3----|---------3/8----|
E|----------------|----------------|----------------|-------------8\1|


Chorus
 |   1   2   3   4|   1   2   3   4|   1   2   3   4|   1   2   3   4|
G|----------------|----------------|----------------|----------------|
D|----------------|----------------|---1-----1-0----|-----------3----|
A|---1-----1-0----|----------------|----------------|---3------3-----|
E|----------------|-3-------3-3----|----------------|---------------1|

 |   1   2   3   4|   1   2   3   4|   1   2   3   4|   1   2   3   4|
G|----------------|----------------|----------------|-------3--------|
D|-0h1-----1-1----|-1-0----3-1-----3h5p3-----3-1----|-1-0--3--1------|
A|3---------------|----------------|----------------|----------------|
E|----------------|----------------|----------------|----------------|

 |   1   2   3   4|   1   2   3    4|
G|----------------|-----------------|
D|1p0--------3-3--|-3----------3h5p3|
A|---3-----3------|---1-----1-3-----|
E|----------------|-----------------|


 |    1   2   3   4|   1   2   3   4|   1   2   3   4|   1   2   3   4|
G|-----------------|----------------|----------------|----------------|
D|-----------------|----------------|---1-----1-0----|-----------3----|
A|5p3-1-----1-0----|----------------|----------------|---3------3-----|
E|-----------------|-3-------3-3----|----------------|---------------1|

 |   1   2   3   4|   1   2   3   4|   1   2   3   4|   1   2   3   4|
G|----------------|----------------|----------------|-------3--------|
D|-0h1-----1-1----|-1-0----3-1-----3h5p3-----3-1----|-1-0--3--1------|
A|3---------------|----------------|----------------|----------------|
E|----------------|----------------|----------------|----------------|

 |   1   2   3   4|   1   2   3   4|   1   2   3   4|   1   2    3   4|   1   2|
G|----------------|-----------2----|5h7-------------|-----------------|--------|
D|1p0--------3-3--|-3-------3------|---5-----5-3----|5p3----8/10------|--------|
A|---3-----3------|---1------------|----------------|---6--------8---8\---1----|
E|----------------|----------------|----------------|-----------------|--------|


| /  slide up
| \  slide down
| h  hammer-on
| p  pull-off
| x  Mute note
Добавлено: 04.03.2016
Вам также может быть интересно:
Другие материалы по этой песне:
  • Аккорды и текст

Страница создана 04.03.2016
http://primanota.ru/tore-w-aas/herre-denne-dag-er-din-chords.htm
Привет, Гость.
Предлагаем пройти революционный курс по гитаре.
Подарок от PrimaNota.Ru, забирай!