PrimaNota.ru - самый крупный в мире бесплатный архив песенных текстов, аккордов, табулатур и нот


Torche - Restarter - таба, видео

Регистрация Запомнить меня
Войти через:  Facebook Google Twitter Vk Yandex Mail.ru

Torche - Restarter - таба, видео

Печатать
Просмотров: 61
Torche - Restarter
Album: Restarter
Tuning: AADGBe

The tuning is standard but with the Low E tuned down to an A, which allows you to play the thick Torche chords
we know and love. I believe most Torche songs use this tuning.

This lengthy song boasts a whole ONE Riff and ONE line of lyrics!

It's actually two slight variations, the only difference being the very last bar.

e|------------------|-----------------|-----------------|----------------------|
B|------------------|-----------------|-----------------|----------------------|
G|------------------|-----------------|-----------------|----------------------|
D|------------------|-----------------|-----------------|----------------------|
A|--7-7-7-7-7-7-7-7-|-7-7-7-7-7-7-7-7-|-7-7-7-7-7-7-7-7-|-10-10-10-10-10-9-9-0-|
A|--7-7-7-7-7-7-7-7-|-7-7-7-7-7-7-7-7-|-7-7-7-7-7-7-7-7-|-10-10-10-10-10-9-9-0-|

e|------------------|-----------------|-----------------|
B|------------------|-----------------|-----------------|
G|------------------|-----------------|-----------------|
D|------------------|-----------------|-----------------|
A|--3-3-3-3-3-3-3-3-|-3-3-3-3-3-3-3-3-|-3-3-3-3-3-3-3-3-|
A|--3-3-3-3-3-3-3-3-|-3-3-3-3-3-3-3-3-|-3-3-3-3-3-3-3-3-|

The last bar can be

e|-----------------|        e|---------------------|
B|-----------------|        B|---------------------|
G|-----------------|        G|---------------------| 
D|-----------------|        D|---------------------|
A|-0-0-0-0-8-8-8-8-|        A|-0-0-0-0-12-12-12-12-|
A|-0-0-0-0-8-8-8-8-|   or   A|-0-0-0-0-12-12-12-12-|

That's pretty much it! This is accompanied by several lead parts that are played with tremolo picking and lots
of delay. A couple of these parts are as follows.

Part A (Showing single notes, pick them in a tremolo fashion)
e|-------------------------------------------------------------5-----
B|--5------8---7-------------6----5------8---7-----------------------
G|-----------------5-----2------------------------5-------2----------
D|-------------------------------------------------------------------
A|-------------------------------------------------------------------
A|-------------------------------------------------------------------

Part B (something like this)

e|------------------------------------
B|--12-----15-----17-----12-----15----
G|------------------------------------
D|------------------------------------
A|------------------------------------
A|------------------------------------

Play around with that stuff. You should come up with something pretty close.

And for the record, here are the lyrics:

   Our leaders
   Are done with conversation

Repeat ad infinitum.

Please comment with any ideas/corrections. Thanks.
Добавлено: 29.03.2016
Вам также может быть интересно:
Другие материалы по этой песне:
  • Аккорды и текст

Страница создана 29.03.2016
http://primanota.ru/torche/restarter-chords.htm
Привет, Гость.
Предлагаем пройти революционный курс по гитаре.
Подарок от PrimaNota.Ru, забирай!