PrimaNota.ru - самый крупный в мире бесплатный архив песенных текстов, аккордов, табулатур и нот


Torche - Kicking - таба, видео

Регистрация Запомнить меня
Войти через:  Facebook Google Twitter Vk Yandex Mail.ru

Torche - Kicking - таба, видео

Печатать
Просмотров: 93
"Kicking"
By: Torche
Off the album, "Harmonicraft" 2012

Tabbed by: Jason Bloss
email: valentinezxifax@yahoo.com

D Standard Tuning
(DGCFAd)


Riff 1
(0:00-0:16)

d|-------------------------------------------------------------------------|
A|--9h12-121212-99-121212121010101010--------------------------------------|
F|--9-9--9-9-9--99-9-9-9-9-9-9-9-9-9---------------------------------------|
C|-------------------------------------------------------------------------|
G|-------------------------------------------------------------------------|
D|-------------------------------------------------------------------------|

Riff 2
(0:17-0:24)

d|-------------------------------------------------------------------------|
A|-------------------------------------------------------------------------|
F|-------------------------------------------------------------------------|
C|--7/9-999-7-999-7--------------------------------------------------------|
G|--5/7-777-5-777-5--------------------------------------------------------|
D|--adding this open string can give it some heaviness---------------------|

Repeat Riff 1
(0:25-0:37)

Repeat Riff 2...
(0:38-0:48)

But add this at the end of it
d|-------------------------------------------------------------------------|
A|-------------------------------------------------------------------------|
F|-------------------------------------------------------------------------|
C|--7-7-76--4-6------------------------------------------------------------|
G|--7-7-76--4-6------------------------------------------------------------|
D|--5-5-54--2-4------------------------------------------------------------|

Riff 3
(0:49-1:30)
Lots of wah sounding stuff in the background but these are the chords being
played (basically just D, G, E, D (remember it's a full step down tuning)) 

d|--0~~---------------0~~--------------------------------------------------|
A|--0~~---2~~---------0~~--------------------------------------------------|
F|--1~~---2~~---------1~~--------------------------------------------------|
C|--2~~---2~~---4~~---2~~--------------------------------------------------|
G|--2~~---0~~---4~~---2~~--------------------------------------------------|
D|--0~~---------2~~---0~~--------------------------------------------------|

Add this before going back into Riff 2

d|-------------------------------------------------------------------------|
A|-------------------------------------------------------------------------|
F|-------------------------------------------------------------------------|
C|--7-7-76-7/9-------------------------------------------------------------|
G|--5-5-54-5/7-------------------------------------------------------------|
D|-------------------------------------------------------------------------|

Now play Riff 2 again
(1:32-1:42)
then Riff 2 will crossover into Riff 4 (1:43-2:03)

d|-------------------------------------------------------------------------|
A|-------------------------------------------------------------------------|
F|-------------------------------------------------------------------------|
C|--7/99--1111--77--99--1111--77--99---------------------------------------|
G|--5/77--9-9---55--77--9-9---55--77---------------------------------------|
D|-------------------------------------------------------------------------|

Then just repeat this chord a few times until 2:10

d|-------------------------------------------------------------------------|
A|-------------------------------------------------------------------------|
F|-------------------------------------------------------------------------|
C|--99-99-99---------------------------------------------------------------|
G|--77-77-77---------------------------------------------------------------|
D|-------------------------------------------------------------------------|

After that it will repeat riff 1 but a little more slowly for 2 measures and
then go back into full swing for riff 2 until the end of the song! 

(2:11-end)

And that's it! Torche is an awesome band everyone should check out!
This is all MY tab so if you see any mistakes or want to make any
requests, leave a comment or send me an email through the address
at the top. Enjoy!
Добавлено: 19.10.2013
Другие материалы по этой песне:

Страница создана 19.10.2013
http://primanota.ru/torche/kicking-chords.htm
Привет, Гость.
Предлагаем пройти революционный курс по гитаре.
Подарок от PrimaNota.Ru, забирай!