PrimaNota.ru - самый крупный в мире бесплатный архив песенных текстов, аккордов, табулатур и нот


Tops - Sleeptalker - бас-таба, видео

Регистрация Запомнить меня
Войти через:  Facebook Google Twitter Vk Yandex Mail.ru

Tops - Sleeptalker - бас-таба, видео

Печатать
Просмотров: 52
-------------------------------------------------------------------------------
                             Sleeptalker - TOPS
-------------------------------------------------------------------------------
Tabbed by: eronisko

Tuning: Standard


Intro

G|--------|--------|--------|--------|--------|--------|--------|
D|--------|--------|-------0|--------|--------|--------|-------0|
A|--------|0-------|--------|--------|--------|0-------|--------|
E|2-------|--------|2--0----|-------2|--------|--------|2--0----|


Verse (repeat 2x)

G|--------|--------|--------|--------|
D|--------|--------|--------|-------0|
A|--------|--------|0-------|--------|
E|-------2|--------|--------|2--0----|


Chorus

G|--------|--------|--------|--------|--------|
D|--------|--------|--------|--------|0-------|
A|--------|--------|0-------|2-------|--------|
E|-------2|--------|--------|--------|--------|

G|--------|--------|--------|--------|--------|
D|--------|--------|--------|0-------|--------|
A|--------|0-------|2-------|--------|--------|
E|2-------|--------|--------|--------|--------|


Then: Intro, Verse, Chorus (repeat 2nd part 3x)

===============================================================================
Добавлено: 15.12.2015
Другие материалы по этой песне:
  • Аккорды и текст

Страница создана 15.12.2015
http://primanota.ru/tops/sleeptalker-chords.htm
Привет, Гость.
Предлагаем пройти революционный курс по гитаре.
Подарок от PrimaNota.Ru, забирай!