PrimaNota.ru - самый крупный в мире бесплатный архив песенных текстов, аккордов, табулатур и нот


Topherman - Curse Your Name - таба, видео

Регистрация Запомнить меня
Войти через:  Facebook Google Twitter Vk Yandex Mail.ru

Topherman - Curse Your Name - таба, видео

Печатать
Просмотров: 79
-------------------------------------------------------------------------------
                             CURSE YOUR NAME - TopherMan
-------------------------------------------------------------------------------
Tabbed by:Chandler Wood
Email:chandler_wood13@yahoo.com

Tuning:Drop D dadgbe


note- i use my thumb to play the low d string notes and my index finger to play the g 
and b string notes. if you listen to the song closely you can here how i alternate. have fun!


INTRO:

e|---------------------------------------------------------------------------|
B|-------------7---------5---------------------5-----------------------------|
G|----7----------------------------7---------------------7--------7----------|
D|---------------------------------------------------------------------------|
A|---------------------------------------------------------------------------|
D|----0-----0-------0----------0----------0----------0--------0---------0----|

e|---------------|
B|---------------|
G|----6----------|
D|---------------|   Repeat: x2
A|---------------|
D|-----------0---|

e|---------------------------------------------------------------------------|
B|---------------------------------------------------------------------------|
G|-----7-------------------------------7-------------------------------4-----|
D|---------------------0------------------------------0----------------------|
A|---------------------------------------------------------------------------|
D|-----9--------9-------------9--------9--------9------------9---------5-----|

e|---------------------------------------------------------------------------|
B|---------------------------------------------------------------------------|
G|----------------------4/2--------------------------------------------------|
D|-----------0------------------------0----------2/4----------4-----------4--|
A|---------------------------------------------------------------------------|
D|-----5----------5-------------0---------0------0-------0---------0---------|

e|---------------------------------------------------------------------------|
B|---------------------------------------------------------------------------|
G|---------------------------------------------------------------------------|
D|-----------4------------4------------4-----------4-----------4----------4--|
A|---------------------------------------------------------------------------|
D|----0------------0-------------0-----------0-----------0-----------0-------|

CHORDS:

intro/verse

D,B,G,D

chorus

B,G,D

bridge

G,D,A


Email me if you have any questions!

http://www.tophermanband.com/
Добавлено: 25.07.2012
Другие материалы по этой песне:
  • Аккорды и текст

Страница создана 25.07.2012
http://primanota.ru/topherman/curse-your-name-chords.htm
Привет, Гость.
Предлагаем пройти революционный курс по гитаре.
Подарок от PrimaNota.Ru, забирай!