PrimaNota.ru - самый крупный в мире бесплатный архив песенных текстов, аккордов, табулатур и нот


The Top Shelf - Baby The World Really Turns - аккорды и текст, видео

Регистрация Запомнить меня
Войти через:  Facebook Google Twitter Vk Yandex Mail.ru

The Top Shelf - Baby The World Really Turns - аккорды и текст, видео

Печатать
Просмотров: 83
Baby The World Really Turns
The Top Shelf
Band: The Top Shelf
Song: Baby the world really turns (The Present cover) (https://www.youtube.com/watch?v=gkJ3w_wcjxw)
Album: (single)
Tabber: Andrew Biles

Standard tuning

|--------------------------------------
|---------------x------------------x---
|---------------x------------------x---
|-4--4-3--------x----4--4-3--------x---
|--------6-4----x-----------6-4----x---
|--------------------------------------

|-------------------------------------
|-----------------------------4-------
|-----------------------3-4-6---6--6--
|-4-4-3-----------3-4-6---------------
|-------6-4-4-4-6---------------------
|-------------------------------------

|-------------------------------------5---
|-------------------------------4-5-7---7-
|-----3-4-4-4-3-----------3-4-6-----------
|-4-6-----------6-4-4-4-6-----------------
|-----------------------------------------
|-----------------------------------------

A


Chorus:
D
Many's the slip
          C
Twixt the cup and the lip
G    C       G
Each day you live and you learn
D                      C
Sometimes a loss is as good as a win
F
Baby, the world really turns (baby, the world really turns)
                            D
Baby, the world really turns


Verse:
       G
And it changes
       Em 
yes it changes
           G             Em 
things you plan on never happen
      F#m                B
maybe sometimes all goes good
         E                   Dbm
and maybe sometimes all goes bad
        F#             A
but the changes always take you
      G               (F#)
to another kind of bad

|-------------------------------------
|-----------------------------4-------
|-----------------------3-4-6---6--6--
|-4-4-3-----------3-4-6---------------
|-------6-4-4-4-6---------------------
|-------------------------------------

Chorus

Verse:
it goes spinnin'
we spin on
we go spinnin'
right on with it
into bumper storied past
which make up all the times we've lost
good is only very good
when very bad has been the cause

Chorus

F - Bb - Db

     F#                 Db
and I like it (I like it fine?)                
you know that I like it 
baby I like it
Добавлено: 21.12.2015
Другие материалы по этой песне:
  • Аккорды и текст

Страница создана 21.12.2015
http://primanota.ru/top-shelf/baby-world-really-turns-chords.htm
Привет, Гость.
Предлагаем пройти революционный курс по гитаре.
Подарок от PrimaNota.Ru, забирай!