PrimaNota.ru - самый крупный в мире бесплатный архив песенных текстов, аккордов, табулатур и нот


Toots And The Maytals - Pressure Drop - аккорды и текст, бас-таба, видео

Регистрация Запомнить меня
Войти через:  Facebook Google Twitter Vk Yandex Mail.ru

Toots And The Maytals - Pressure Drop - аккорды и текст, бас-таба, видео

Печатать
Просмотров: 162
Авторы музыки: Frederick Nathaniel Hibbert
Авторы текста: Frederick Nathaniel Hibbert
Pressure Drop
Toots And The Maytals
Pressure Drop
(Toots and the Maytals)

Transcribed by darrenblin@hotmail.com

Capo on the first fret
Play it reggae style!!

Bass Line (with accompanying guitar chords)

(Intro)   G(Ab)                   C(Db)
    Ab--------------------------|------0-------------0--|-
    Eb---------0--------------0-|---2-------------2-----|-
    Bb------2--------------2----|-3-------------3-------|-
    F-----3--------------3------|-----------------------|-
(repeat once more)

The entire song then follows the following progression:

     G(Ab)               D(Eb)
Ab-----------------------------2-----------|-
Eb---------0---------0------0--------------|-
Bb------2---------2------0-----------------|-
F----3---------3---------------------------|-

     C(Db)               G(Ab)
Ab---------0---------0---------------------|-
Eb------2---------2------------0-----------|-
Bb---3---------3------------2--------------|-
F------------------------3-----------------|-

(repeat)


---------

Lyrics can be found at the
Reggae Lyrics Archive @ http://hjem.get2net.dk/sbn/reggae.htm

     
Добавлено: 03.12.2013
Другие материалы по этой песне:

Страница создана 13.05.2012
http://primanota.ru/toots-and-the-maytals/pressure-drop-chords.htm
Привет, Гость.
Предлагаем пройти революционный курс по гитаре.
Подарок от PrimaNota.Ru, забирай!