PrimaNota.ru - самый крупный в мире бесплатный архив песенных текстов, аккордов, табулатур и нот


Toots And The Maytalls - Pressure Drop - бас-таба, видео

Регистрация Запомнить меня
Войти через:  Facebook Google Twitter Vk Yandex Mail.ru

Toots And The Maytalls - Pressure Drop - бас-таба, видео

Печатать
Просмотров: 71
Авторы музыки: Frederick Nathaniel Hibbert
Авторы текста: Frederick Nathaniel Hibbert
toots_and_the_maytalls/pressure_drop.btab

Basstab by Jan Bjorklund, Finland; 
jani_bjorklund@yahoo.se 
You are welcome to request for basstabs!
Bienvenidos a pedirme transcripciones para el bajo!
Fingering and positions as suggested by TablEdit. 

TablEdited by Jan Bjorklund for Ron
Tuning : E A D G 	Time Signature: 4/4    tempo 150

 |       |       |       |        |       |       |       |        
|--------------------------------|--------------------------------|
|--------------------------------|--------------------------------|
|----3---6-----------------------|--------------------3---6-------|
|4-------------------------------|----------------4---------------|

 |       |       |       |        |       |       |       |        
|--------------------------------|--------------------------------|
|----3---6-----------------------|--------------------3---6-------|
|4-------------------------------|----------------4---------------|
|--------------------------------|--------------------------------|

 |       |       |       |        |       |       |       |        
|--------------------------------|--------------------------------|
|--------------------------------|--------------------------------|
|----3---6-----------------------|--------------------3---6-------|
|4-------------------------------|----------------4---------------|

 |       |       |       |        |       |       |       |        
|--------------------------------|--------------------------------|
|----3---6-----------------------|--------------------3---6-------|
|4-------------------------------|----------------4---------------|
|--------------------------------|--------------------------------|

 |       |       |       |        |       |       |       |        
|--------------------------------|--------------------------------|
|--------------------------------|----5---8-----------------------|
|----3---6-----------3---6-------|6-------------------------------|
|4---------------4---------------|--------------------------------|

 |       |       |       |        |       |       |       |        
|--------------------------------|--------------------------------|
|--------------------------------|----3---6-----------------------|
|----3---6-----------3---6-------|4-------------------------------|
|4---------------4---------------|--------------------------------|

 |       |       |       |        |       |       |       |        
|--------------------------------|--------------------------------|
|--------------------------------|----5---8-----------------------|
|----3---6-----------3---6-------|6-------------------------------|
|4---------------4---------------|--------------------------------|

 |       |       |       |        |       |       |       |        
|--------------------------------|--------------------------------|
|--------------------------------|----3---6-----------------------|
|----3---6-----------3---6-------|4-------------------------------|
|4---------------4---------------|--------------------------------|

 |       |       |       |        |       |       |       |        
|--------------------------------|--------------------------------|
|--------------------------------|----5---8-----------------------|
|----3---6-----------3---6-------|6-------------------------------|
|4---------------4---------------|--------------------------------|

 |       |       |       |        |       |       |       |        
|--------------------------------|--------------------------------|
|--------------------------------|----3---6-----------------------|
|----3---6-----------3---6-------|4-------------------------------|
|4---------------4---------------|--------------------------------|

 |       |       |       |        |       |       |       |        
|--------------------------------|--------------------------------|
|--------------------------------|----5---8-----------------------|
|----3---6-----------3---6-------|6-------------------------------|
|4---------------4---------------|--------------------------------|

 |       |       |       |        |       |     and so on...       
|--------------------------------|--------------------------------|
|----3---6-----------3---6-------|--------------------------------|
|4---------------4---------------|----3---6-----------------------|
|--------------------------------|4-------------------------------|

Transcribe! 5.2 transcription http://www.seventhstring.demon.co.uk/
Created with TablEdit http://www.tabledit.com/


     
Добавлено: 20.07.2013
Другие материалы по этой песне:
  • Аккорды и текст

Страница создана 20.07.2013
http://primanota.ru/toots-and-the-maytalls/pressure-drop-chords.htm
Привет, Гость.
Предлагаем пройти революционный курс по гитаре.
Подарок от PrimaNota.Ru, забирай!