PrimaNota.ru - самый крупный в мире бесплатный архив песенных текстов, аккордов, табулатур и нот


Tool - Wings For Marie (Pt. 1) - текст песни, таба, видео

Регистрация Запомнить меня
Войти через:  Facebook Google Twitter Vk Yandex Mail.ru

Tool - Wings For Marie (Pt. 1) - текст песни, таба, видео

Печатать
Просмотров: 92
                      TOOL - WINGS FOR MARIE (PT. 1)

Tabbed by: Marcelo Crispim
Email: marcelo.crispim@hotmail.com

Artist: Tool
Song: Wings for Marie (Pt. 1)
Album: 10,000 Days  

Tuning: D A D B G e


0:00 (clean) (listen to the song to know the right rhythm)
|-0---------|
|----1------|  Lots of times
|-------2---|
|-----------|
|-----------|
|-----------|


1:40
|-1--------3--------1--------1~----0~----------0~----3~----0~---|
|----1--------1--------1-----------------3~---------------------|
|-------2--------2--------2-------------------------------------|
|---------------------------------------------------------------|
|---------------------------------------------------------------|
|---------------------------------------------------------------|


1:44
|-0~--0~--0~--0~--0~--0~--0~--3~--0~--0~--0~--0~--0~--0~--0~---|
|--------------------------------------------------------------|
|--------------------------------------------------------------|
|--------------------------------------------------------------|
|--------------------------------------------------------------|
|--------------------------------------------------------------|


1:52
|-0---------|
|----1------|  x16
|-------2---|
|-----------|
|-----------|
|-----------|


1:58
|-1--------3--------1--------1~----0~----------0~----3~----0~---|
|----1--------1--------1-----------------3~---------------------|
|-------2--------2--------2-------------------------------------|
|---------------------------------------------------------------|
|---------------------------------------------------------------|
|---------------------------------------------------------------|


2:02
|-0~--0~--0~--0~--0~--0~--0~--3~--0~--0~--0~--0~--0~--0~--0~---|
|--------------------------------------------------------------|
|--------------------------------------------------------------|
|--------------------------------------------------------------|
|--------------------------------------------------------------|
|--------------------------------------------------------------|


2:10
|-0---------|
|----1------|  x16
|-------2---|
|-----------|
|-----------|
|-----------|


2:19
|-1--------3--------1--------1~----0~----------0~----3~----0~---|
|----1--------1--------1-----------------3~---------------------|
|-------2--------2--------2-------------------------------------|
|---------------------------------------------------------------|
|---------------------------------------------------------------|
|---------------------------------------------------------------|


2:23
|-0~--0~--0~--0~--0~--0~--0~--3~--0~--0~--0~--0~--0~--0~--0~---|
|--------------------------------------------------------------|
|--------------------------------------------------------------|
|--------------------------------------------------------------|
|--------------------------------------------------------------|
|--------------------------------------------------------------|


2:30
|-0---------|
|----1------|  x16
|-------2---|
|-----------|
|-----------|
|-----------|


2:39
|-1--------3~----1--------1~----0~----------0~----3~----0~---|
|----1--------------1-----------------3~---------------------|
|-------2--------------2-------------------------------------|
|------------------------------------------------------------|
|------------------------------------------------------------|
|------------------------------------------------------------|


2:43
|-0~--0~--0~--0~--0~--0~--0~--3~--0~--0~--0~--0~--0~--0~--0~---|
|--------------------------------------------------------------|
|--------------------------------------------------------------|
|--------------------------------------------------------------|
|--------------------------------------------------------------|
|--------------------------------------------------------------|


2:50
|-0---------|
|----1------|  x16
|-------2---|
|-----------|
|-----------|
|-----------|


2:58
|-1--------3~----1--------1~----0~----------0~----3~----0~---|
|----1--------------1-----------------3~---------------------|
|-------2--------------2-------------------------------------|
|------------------------------------------------------------|
|------------------------------------------------------------|
|------------------------------------------------------------|


3:03
|-0~--0~--0~--0~--0~--0~--0~--3~--0~--0~--0~--0~--0~--0~---|
|----------------------------------------------------------|
|----------------------------------------------------------|
|----------------------------------------------------------|
|----------------------------------------------------------|
|----------------------------------------------------------|


3:08
|--------------------------------------|
|-3~--2~--2~--2~--2~--2~--2~--2~--2\---|
|--------------------------------------|
|--------------------------------------|
|--------------------------------------|
|--------------------------------------|


3:14 (with delay)
|------------------------------------|
|------------------------------------|   x3
|------------------------------------|
|-2--3--5--3--2--3--2~----2~----2~---|
|------------------------------------|
|------------------------------------|


3:39
|------------------------------------------2~---|
|-3--2~----3-2-0~----3-2~----3-2-0-2-0~---------|
|-----------------------------------------------|
|-----------------------------------------------|
|-----------------------------------------------|
|-----------------------------------------------|


3:54
|---------------------------------------------|
|-3--2~----3-2-0~----3-2~----3-2-0-2-0h2p0~---|
|---------------------------------------------|
|---------------------------------------------|
|---------------------------------------------|
|---------------------------------------------|


4:08 (with flange)
|----------------------|
|----------------------|
|----------------------|
|-(9)------------------|
|-(9)-*volume swell*---|
|-(9)------------------|


4:12 (distorted)
|--------------------------|      
|--------------------------|  x3
|--------------------------|
|-9-9-9-9~--12-12-12-12~---|
|-9-9-9-9~--12-12-12-12~---|
|-9-9-9-9~--12-12-12-12~---|

|------------------------------|      
|------------------------------|
|------------------------------|
|-9p7-9p7-9p7~--12-12-12-12~---|
|-9p7-9p7-9p7~--12-12-12-12~---|
|-9p7-9p7-9p7~--12-12-12-12~---|

|------------------------------------|      
|------------------------------------|
|------------------------------------|
|-5-5-5-5~--2-2-2-2~--5-5-5-5~--0~---|
|-5-5-5-5~--2-2-2-2~--5-5-5-5~--0~---|
|-5-5-5-5~--2-2-2-2~--5-5-5-5~--0~---|


4:24 (clean, with delay)
|------------------------------------|
|------------------------------------|  x4 (on last repeat, slide
|------------------------------10~---|      fingers slowly down neck)
|------------------------------10~---|
|-7p0-5-7~--7p0-5-7~-7p0-5-7~---8~---|
|------------------------------------|


4:53
|----------------------------------------|
|----------------------------------------|  x6
|----------------------------------------|
|----5---------10----------15------14~---|
|-3-----3--/8------8--/17------17--------|
|----------------------------------------|


5:48
|------------------|
|-1~--3~-----------|
|---------0~--2~---|
|------------------|
|------------------|
|------------------|


Добавлено: 27.10.2013
Другие материалы по этой песне:
  • Аккорды и текст

Страница создана 29.06.2012
http://primanota.ru/tool/wings-for-marie-pt-1-chords.htm
Привет, Гость.
Предлагаем пройти революционный курс по гитаре.
Подарок от PrimaNota.Ru, забирай!