PrimaNota.ru - самый крупный в мире бесплатный архив песенных текстов, аккордов, табулатур и нот


Tool - Wings For Marie Part 1 - таба, видео

Регистрация Запомнить меня
Войти через:  Facebook Google Twitter Vk Yandex Mail.ru

Tool - Wings For Marie Part 1 - таба, видео

Печатать
Просмотров: 78
Wings for Marie, part 1
Tool
10,000 Days

gtr. I: clean with delay
gtr. II: Distortion

gtr. I: (starts to fade in at about the 40 second mark)
E)-------------------|
B)-------------------|  (I think on the studio recording,
G)-9---9---9---9-----|  he just recorded this and then
D)--10--10--10--10---|  sped it up, but for now, you can
A)----0---0---0---0--|  just play this a bunch of times
D)-------------------|  as fast as you can,
pm__________________  and then gradually slow down)
Then: (1:10)
E)--------------------------|
B)--------------------------|
G)-9--9--9--9--9--9--9--9---|
D)--------------------------| x2
A)--00-00-00-00-00-00-00-00-|
D)--------------------------|
(for this next part, when you play the notes on the D
string, release them quickly afterwards.)
E)----------------------------------|
B)----------------------------------|
G)-9---9---9---9---9---9---9---9----|
D)--10--10--10--10--10--10--10--10--|
A)----0---0---0---0---0---0---0---0-|
D)----------------------------------|

E)--------------------------------|
B)--------------------------------|
G)-9---9---9---9---9---9---9-9-9--|
D)--10--10--10--10--10--10--------|
A)----0---0---0---0---0---0-0-0-0-|
D)--------------------------------|

Main riff: (1:25)
E)--------------------------|
B)--------------------------|
G)-9--9--9--9--9--9--9--9---|
D)--------------------------| x2
A)--00-00-00-00-00-00-00-00-|
D)--------------------------|

E)----------------------------------|
B)----------------------------------|
G)-9---9---9---9---9---9---9---9----|
D)--10--10--10--10--10--10--10--10--| x2
A)----0---0---0---0---0---0---0---0-|
D)----------------------------------|

E)--------------------------------------|
B)--------------------------------------|
G)-10---12---9---10---9---7---9---12----|
D)---10---10--10---10--10--10--10---10--|
A)-----0----0---0----0---0---0---0----0-|
D)--------------------------------------|

Do all this 5x and then go to this next part:

(3:02)
E)--------------------------|
B)--------------------------|
G)-9--9--9--9--9--9--9--9---|
D)--------------------------|
A)--00-00-00-00-00-00-00-00-|
D)--------------------------|

E)----------------------------|
B)----------------------------|
G)-12--9--9--9--9--9--9-------|
D)-----------------------12---|
A)---00-00-00-00-00-00-00--00-|
D)----------------------------|

"Broken..." (3:10)
E)----------------------------------|
B)----------------------------------|
G)---------------------12--12--12---|
D)-11--11--11--11--12---------------|
A)---00--00--00--00--00--00--00--00-|
D)----------------------------------|
"Fell at the hands of those movements that I wouldn't-
E)------------------------------|
B)------------------------------|
G)------------------------------|
D)-2--4--5--4--2--4--0--2-------|
A)------------------------------|
D)------------------------------|
-see..."
E)-------------------------------------------------|
B)-------------------------------------------------|
G)-------------------------------------------------|
D)-2---2-2--2--2--2--2--2--2--4--5--4--2--4--0--2--| x2
A)---0---------------------------------------------|
D)-------------------------------------------------|
                      "...To be-
E)------------------------------|
B)------------------------------|
G)------------------------------|
D)-2---2-2--(let ring)----------|
A)---0--------------------------|
D)------------------------------|

-worthy...       (3:38)
E)-------------------------------------------------|
B)-------------------------------------------------|
G)-------------7--6--------------------7--6--4-----|
D)-4--4--4--4--------4--4--4--4--4--4-----------4--|
A)-------------------------------------------------|
D)-------------------------------------------------|

E)-------------------------------------------------|
B)-------------------------------------------------|
G)-------------7--6--------------------7--6--4--6--|
D)-4--4--4--4--------4--4--4--4--4--4--------------|
A)-------------------------------------------------|
D)-------------------------------------------------|

E)-------------------------------------------------|
B)-------------------------------------------------|
G)-4-----------7--6--------------------7--6--4-----|
D)----4--4--4--------4--4--4--4--4--4-----------4--|
A)-------------------------------------------------|
D)-------------------------------------------------|

E)-------------------------------------------------|
B)-------------------------------------------------|
G)-------------7--6--------------------7--6--4--6--|
D)-4--4--4--4--------4--4--4--4--4--4--------------|
A)-------------------------------------------------|
D)-------------------------------------------------|

(gradually volume swell with gtr. II while doing this)
E)------------------------------|
B)------------------------------|
G)-4h6p4-----(let ring)---------|
D)------------------------------|
A)------------------------------|
D)------------------------------|

gtr. II: (4:13)
E)-------------------------------------------------------|
B)-------------------------------------------------------|
G)-------------------------------------------------------| x2
D)-9-9-9-9-9-9-0-0-0-0-0-0-9-9-9-9-9-9-12-12-12-12-12-12-|
A)-9-9-9-9-9-9-0-0-0-0-0-0-9-9-9-9-9-9-12-12-12-12-12-12-|
D)-9-9-9-9-9-9-0-0-0-0-0-0-9-9-9-9-9-9-12-12-12-12-12-12-|

E)-------------------------------------------------------|
B)-------------------------------------------------------|
G)-------------------------------------------------------|
D)-5-5-5-5-5-5-2-2-2-2-2-2-5-5-5-5-5-5-0-----------------|
A)-5-5-5-5-5-5-2-2-2-2-2-2-5-5-5-5-5-5-0--(let ring)-----|
D)-5-5-5-5-5-5-2-2-2-2-2-2-5-5-5-5-5-5-0-----------------|

gtr. I: (4:26)
E)-------------------------|
B)-------------------------|
G)-------------------------|
D)----2-----2-----2--3-----| x4
A)--00-00-00-00-00-003-----|
D)-0-----0-----0-----3-----|

(I thank System Addict for helping me figure out
everything else.  Keep tabbing, dude!):)
E)-------------------------------------------|
B)-------------------------------------------|
G)-------------------------------------------|
D)(3)------/4-/5---/6----/7------------------|
A)(3)------/4-/5---/6----/7---(let ring)-----|
D)(3)------/4-/5---/6----/7------------------|

"Daylight dims, leaving cold fluorescents..."
(after he says this, you do this)
E)---------------------------------------|
B)---------------------------------------|
G)-----------------10-----9-(let ring)---|
D)---5-----10---12----12-----------------|
A)-3---3-8----8--------------------------|
D)---------------------------------------|

(then do this 5 more times, each time after Maynard
says something)

"I'm alright, now it's time for us to let you-
E)------------------------------------------------|
B)------------------------------------------------|
G)------------------------------------------------|
D)------------9--------12-------------------------|
A)------------------------------------10----------|
D)------------------------------------------------|
 -go..."
E)-------------------------------------------|
B)-------------------------------------------|
G)-------------------------------------------|
D)-9\7-----(let ring)------------------------|
A)-------------------------------------------|
D)-------------------------------------------|

Take a bow, (you deserve it) and be sure to look
at my upcoming tab for part II (10,000 Days).
Questions and comments always welcome.
Добавлено: 25.10.2013
Другие материалы по этой песне:
  • Аккорды и текст

Страница создана 25.10.2013
http://primanota.ru/tool/wings-for-marie-part-1-chords.htm
Привет, Гость.
Предлагаем пройти революционный курс по гитаре.
Подарок от PrimaNota.Ru, забирай!