PrimaNota.ru - самый крупный в мире бесплатный архив песенных текстов, аккордов, табулатур и нот


Tool - Ticks And Leaches - таба, видео

Регистрация Запомнить меня
Войти через:  Facebook Google Twitter Vk Yandex Mail.ru

Tool - Ticks And Leaches - таба, видео

Печатать
Просмотров: 89
Author/Artist: Tool
Title: Ticks and leeches
Album: Lateralus
Transcribed by: Ryan Wenzel
Email: GuitaRyan5432@Aol.com

This song is in dropped D tuning DADGBE. Use delay on intro and interlude. Have any questions or comments email me.

Intro: Riff #1      Riff #1A
------------------------------------------------------------------------------
--------------------/15-/17-17-17-17-17-17-17-17--15-/17-17-17-17-17-17-17-17-
-9v-7-9v--9v-9v-7---/14-/16-16-16-16-16-16-16-16--14-/16-16-16-16-16-16-16-16-
--------------------/12-/14-14-14-14-14-14-14-14--12-/14-14-14-14-14-14-14-14-
------------------------------------------------------------------------------
------------------------------------------------------------------------------


------------------------------------------------------------------------------
-15/17-17-17-17-17-17-17-17--17\--15------------------------------------------
-14/16-16-16-16-16-16-16-16--16\--14------------------------------------------
-12/14-14-14-14-14-14-14-14--14\--12------------------------------------------
------------------------------------------------------------------------------
------------------------------------------------------------------------------

Riff # 2
------------------------------------------------------------------------------
------------------------------------------------------------------------------
------------------------------------------------------------------------------
------------------------------------------------------------------------------
-2-0-2-7-9-3-2-0-2-0-7-9-3----------------------------------------------------
-2-0-2-7-9-3-2-0-2-0-7-9-3----------------------------------------------------

Riff # 3
------------------------------------------------------------------------------
------------------------------------------------------------------------------
------------------------------------------------------------------------------
------------------------------------------------------------------------------
-------0-2-------------0-2----------------------------------------------------
-2-0-2-----3-2---0-2-0-----3--------------------------------------------------

Riff#4           Riff #4a Suck and suck. Suckin up all you can suckin up all you can suck.
------------------------------------------------------------------------------
------------------------------------------------------------------------------
------------------------------------------------------------------------------
-2----------------------------------------------------------------------------
-2----------------------------------------------------------------------------
-2----------------2222-2222-2222-2222-2222-2222-2222-2222-2222-2222-2222-^2---

Riff # 2 My blood is bruised and borrowed. You thieving bastards........
------------------------------------------------------------------------------
------------------------------------------------------------------------------
------------------------------------------------------------------------------
------------------------------------------------------------------------------
-2-0-2-7-9-3-2-0-2-0-7-9-3----------------------------------------------------
-2-0-2-7-9-3-2-0-2-0-7-9-3----------------------------------------------------

Riff #5 Pre Chorus   Hope this is what you wanted. Hope this is what you had in mind.
------------------------------------------------------------------------------
------------------------------------------------------------------------------
------------------------------------------------------------------------------
-------5---4------------------------------------------------------------------
-0h2xx-3-2-2-0-5-3-2----------------------------------------------------------
-0h2xx---2---0-5-3-2----------------------------------------------------------

Riff #6 Chorus   I hope you're choking. I hope you choke on this
----------------------------------------------^12-----------------------------
----------------------------------------------^12-----------------------------
------------------------------------------------------------------------------
------------3-2---------3-2-0-------------------------------------------------
--3-2-0-----------3-2-0-------------------------------------------------------
-2------3-2-----2-------------------------------------------------------------

Riff #7  Blood suckin parasitic little blood suckin parasitic little
------------------------------------------------------------------------------
------------------------------------------------------------------------------
------------------------------------------------------------------------------
------------------------------------------------------------------------------
-2-0-2-2-0h2-0h2--------------------------------------------------------------
-2-0-2-2-0h2-0h2--------------------------------------------------------------


------------------------------------------------------------------------------
------------------------------------------------------------------------------
------------------------------------------------------------------------------
-------5---4------------------------------------------------------------------
-0h2xx-3-2-2-0-5-3-2----------------------------------------------------------
-0h2xx---2---0-5-3-2----------------------------------------------------------


------------------------------------------------------------------------------
------------------------------------------------------------------------------
------------------------------------------------------------------------------
------------5---4-------------------------------------------------------------
-0-2-2-2--2-3-2-2-0-3-2-------------------------------------------------------
-0-2-2-2--2---2---0-3-2-------------------------------------------------------

Interlude w/clean and delay Riff #8
------------------------------------------------------------------------------
------------------------------3-0---------------------------------------------
------------------------------2-0---------------------------------------------
-4-4--2----2-4-2--4-4-2-/5-0--0-0---------------------------------------------
-2-2--2-22-2-2-2--2-2-2-/5-0--0-0---------------------------------------------
-2-2--2-22---2-2--2-2-2-/5-0--0-0---------------------------------------------

Riff #9  Suck me dry.
------------------------------------------------------------------------------
------------------------------------------------------------------------------
------------------------------------------------------------------------------
-16-16-16--14-14-14-14-14-14--14-14--16-16-16-14-14-14-14-14-14-/17-12-12-12--
-14-14-14--14-14-14-14-14-14--14-14--14-14-14-14-14-14-14-14-14-/17-12-12-12--
-14-14-14--14-14-14-14-14-14--14-14--14-14-14-14-14-14-14-14-14-/17-12-12-12--


------------------------------------------------------------------------------
-----------17-17-17-17-17-17--17-17-----------17-17-17-17-17-17--20-15-15-15--
-----------16-16-16-16-16-16--16-16-----------16-16-16-16-16-16--19-14-14-14--
-16-16-16--14-14-14-14-14-14--14-14--16-16-16-14-14-14-14-14-14-/17-12-12-12--
-14-14-14--14-14-14-14-14-14--14-14--14-14-14-14-14-14-14-14-14-/17-12-12-12--
-14-14-14--14-14-14-14-14-14--14-14--14-14-14-14-14-14-14-14-14-/17-12-12-12--


------------------------------------------------------------------------------
-------------------15/-17-17-17-17-17-17-17-17--15/-17-17-17-17-17-17-17-17---
-9v-7-9v--9v-9v-7--14/-16-16-16-16-16-16-16-16--14/-16-16-16-16-16-16-16-16---
-------------------12/-14-14-14-14-14-14-14-14--12/-14-14-14-14-14-14-14-14---
------------------------------------------------------------------------------
------------------------------------------------------------------------------


------------------------------------------------------------------------------
-15--17-17-17-17-17-17-17-17-17--17--15---------------------------------------
-14--16-16-16-16-16-16-16-16-16--16--14---------------------------------------
-12/-14-14-14-14-14-14-14-14-14--14\-12------0--------------------------------
---------------------------------------------0--------------------------------
---------------------------------------------0--------------------------------

Is this what you wanted?                                       I hope, I hope, I hope you choke.
------------------------------------------------------------------------------
------------------------------------------------------------------------------
---5---4-4-5---------------------------------5-5--5-5--5-5/7-9\---------------
-2-3-2-2-2-3---------------------------------3-3--3-3--3-3/5/7\-2-------------
-2---2----------------------------------------------------------2-------------
-2---2------------0000000000000000000000000---------------------2-------------

Ticks & Leeches
Suck and suck. Suckin up all you can suckin up all you can suck.
Workin up under my patience like a little tick.
Fat little parasite. Suck me dry.
My blood is bruised and borrowed. You thieving bastards.
You have turned my blood cold and bitter,
beat my compassion black and blue.

Hope this is what you wanted.
Hope this is what you had in mind.
Cuz this is what you're getting.
I hope you're choking. I hope you choke on this.
I hope you're choking. I hope you choke on this.

Taken all I can taken all I can, we can take. Taken all you can taken you can, we can take.
Got nothing left to give to you.
Blood suckin parasitic little blood suckin parasitic little
blood suckin parasitic little tick
take what you want and then go.

Suck me dry.

Is this what you wanted?
Is this what you had in mind?
Is this what you wanted?
Cuz this this is what you're getting.
I hope, I hope, I hope you choke.
Добавлено: 24.02.2012
Другие материалы по этой песне:

Страница создана 24.02.2012
http://primanota.ru/tool/ticks-and-leaches-chords.htm
Привет, Гость.
Предлагаем пройти революционный курс по гитаре.
Подарок от PrimaNota.Ru, забирай!