PrimaNota.ru - самый крупный в мире бесплатный архив песенных текстов, аккордов, табулатур и нот


Tool - Lateralus (album) - таба, видео

Регистрация Запомнить меня
Войти через:  Facebook Google Twitter Vk Yandex Mail.ru

Tool - Lateralus (album) - таба, видео

Печатать
Просмотров: 147
Уроки эстрадного вокала в Санкт-Петербурге
I TAKE CREDIT FOR NONE OF THESE TABS, I MERELY THREW THEM TOGETHER AS THE WHOLE Lateralus ALBUM. All tabs seen here were already previously submitted tabs. None of them are mine, so dont get angry because you saw your tab here.


1. The Grudge
2. Eon Blue Apocalypse
3. The Patient
4. Mantra(no guitar)
5. Schism
6. Parabol
7. Parabola
8. Ticks and Leeches
9. Lateralus
10. Disposition
11. Reflection
12. Triad
13. Faaip de Oiad (no guitar)

_______________________________________________________________________________
1. The Grudge
---
The Grudge Tab by Tool, www.Ultimate-Guitar.Com

Hey Guitar freaks this is the Ron the Eyelid, I'm sorry but do guys realize what you are doing to Mr. Jones by tabbing terribly, that shit reflects on him!  You have to sit down and spend like a week on each song, because i guarantee that 99% of you guys have overlooked 99% of the beauty of each song, OK?  Givethe man credit!!!!  oh, and this is me sitting down listening to every single note that Adam plays, and tabbing it. 
Check it out, if you feel these tabs are wrong in any way, email
me @ trigger@priest.com, because i want you to tell me whats wrong and i'll see if im still right... adam is not a technical guitar player.  But he has got one hell of a memory to remmber all of the songs when they change this much (exept 46&2... hehe)
here it is, my contribution to the world.


Keys :
h = hammer on
p = pull off
/ = slide up
\ = slide down
x = mute
bp - bend pulloff (bend 1/2 step then pull off, it might be tough so practice it)
^ - volume swell
hpm - heavy palm muting (slide hand a little up the strings more)
ph - pinch harmonic

The beginning goes:
e|---------------|
b|---------------|
g|---------------|
d|---------------|  X8
a|---------------|
D|--0h2p0-0h2bp0-|

next part:
e|------------------|
b|------------------|
g|------------------|
d|--------0---------|  X8
a|------------------|
D|--0h2p0---0h2p0-3-|

the first riff x18

next part:
(the easiest way to play it is with this strum pattern U{up} & D{down}its natural you'll see)
e|--------------------|
b|--------------------|
g|--------------------|
d|--------------------|
a|-D-UD-D-DU-DUDD-DUD-|
D|-0-X0-0-00-XX00-XX0-|
pm*********************  

Bridge:
e|--------------------------------|
b|--3--3--3--3--3--3--3--3-15\13--|
g|--2--2--2--2--2--2--2--2-14\12--|
d|--0--0--0--0--0--0--0--0--0--0--|
a|--0--0--0--0--0--0--0--0--0--0--|
D|--0--0--0--0--0--0--0--0--0--0--|

after a pause this starts:
e|-------------|
b|-------------|
g|-------------|
d|-------------|  X3
a|-------------|
D|--0-00-0-00--|
PM**************

last time:
e|-----------------------|
b|-----------------------|
g|-----------------------|
d|-----------------------|
a|-----------------------|
D|--0-00-0-00-000-0-000--|
pm************************

Verse:
e|--------------------|
b|--------------------|
g|--------------------|
d|--------------------|  X8
a|--------------------|
D|--0-0-000-000-0-000-|
pm********************

Build Up:
e|--------------------|
b|--------------------|
g|--------------------|
d|--------------------|  X4
a|--------------------|
D|-0-X0-0-00-XX00-XX0-|
pm*********************

Semi-Solo #1:

e|-----------------------------------------------|
b|-----------------------------------------------|
g|-----------------------------------------------|
d|--------7-------7\\5--------7-------7\\5\\\\0--|
A|--5h7p5---5h7p5-------5h7p5---5h7p5------------|
D|-----------------------------------------------|
                                          @@@@
@ - slow slide, release, let ring, then slowly push the string in above the nut and slowly release.
2:40
this part changes ALOT:
e|--------------------------|
b|--------------------------|
g|--7----10-----5-----9/10--|
d|--7----10-----5-----9/10--| X8
a|--5-----8-----3-----7/8---|
D|----0-0---0-0---0-0-------|
pm    * *   * *   * *

e|------------------------|
b|------------------------|
g|--7-XXX-5-XXX-9-XXX-10--|
d|--7-XXX-5-XXX-9-XXX-10--|  X2
a|--5-XXX-3-XXX-7-XXX-8---|
D|----XXX---XXX---XXX-----|

e|----------------------------|
b|----------------------------|
g|--7-XXX-5-XXX-7/9-XXX-9/10--|
d|--7-XXX-5-XXX-7/9-XXX-9/10--|
a|--5-XXX-3-XXX-5/7-XXX-7/8---|
D|----XXX---XXX-----XXX-------|

e|-----------------------------|
b|-----------------------------|
g|--7/9-XXX-5-XXX-7-XXX-9---5--|
d|--7/9-XXX-5-XXX-7-XXX-9---5--|
a|--5/7-XXX-3-XXX-5-XXX-7---3--|
D|------XXX---XXX---XXX--------|

e|-----------------------|
b|-----------------------|
g|-----------------------|
d|--0--0-0--00-XX00-XX0--|  X2
a|--0--0-0--00-XX00-XX0--|
D|--0--0-0--00-XX00-XX0--|

e|-----------------------------|
b|-----------------------------|
g|-----------------------------|
d|------------------XX00--XX0--|
a|--3p0----5p0------XX00--XX0--|
D|------0------0-0--XX00--XX0--|

3:42
 ||:                     :|      :|           :|
e|------------------------|-------|------------|
b|------------------------|-------|------------|
g|-------------------5-5--|-------|--3-3-------|
d|-------------------5-5--|--5-5--|--3-3--3-3--|
a|--3p0----5p0-------3-3--|--5-5--|--1-1--3-3--|
D|------0------0-0--------|--5-5--|-------3-3--|

Then the endings earn some muted chords:
e|----------|----------|------------------|
b|----------|----------|------------------|
g|-X-XX5-5--|-X-XX-----|-X-XX3-3-X-X------|
d|-X-XX5-5--|-X-XX5-5--|-X-XX3-3-X-X-3-3--|  X2
a|-X-XX3-3--|-X-XX5-5--|-X-XX1-1-X-X-3-3--|
D|-X-XX-----|-X-XX5-5--|-X-XX----X-X-3-3--|

e|----------|-----------|-------------|
b|----------|-----------|-------------|
g|-X-XX5-5--|-XXXXX-----|--3-3--------|
d|-X-XX5-5--|-XXXXX5-5--|--3-3---3-3--|
a|-X-XX3-3--|-XXXXX5-5--|--1-1---3-3--|
D|-X-XX-----|-XXXXX5-5--|--------3-3--|

e|----------------------------------|
b|----------------------------------|
g|----------------------------------|
d|--0-0--2/3-3-3--------------------|  X3
a|--0-0--2/3-3-3--3p0----5p0--------|
D|--0-0--2/3-3-3------0------0-0----|

e|-----------------------------|
b|-----------------------------|
g|-----------------------------|
d|------------------XX00--XX0--|  X4
a|--3p0----5p0------XX00--XX0--|
D|------0------0-0--XX00--XX0--|

 ||:                     :|      :|           :|
e|------------------------|-------|------------|
b|------------------------|-------|------------|
g|-------------------5-5--|-------|--3-3-------|
d|-------------------5-5--|--5-5--|--3-3--3-3--|
a|--3p0----5p0-------3-3--|--5-5--|--1-1--3-3--|
D|------0------0-0--------|--5-5--|-------3-3--|

FINALLY A BREAK!!!!
Build Up:(gradualy build up the picking & lessen your palm muting)
e|--------------------|
b|--------------------|
g|--------------------|
d|--------------------|  X3
a|--------------------|
D|-0-X0-0-00-XX00-XX0-|
pm*********************

Next: (w/ flanger and a little wah)
e|-----0--|
b|-----3--|
g|-----2--|
d|-----0--|  X4
a|--0--0--|
D|--0--0--|
(really blast those open bass strings)

this is my favorite part because it takes a supple wrist, let it flow)
5:24
e|-------------------------------------|
b|-------------------------------------|
g|-------------------------------------|
d|-------------------------------------|  X2
a|-----3\\---------------3\\-5\\-------|
D|--0------5\\--3//5--0----------3//5--|

Semi-Solo#2
e|--------------------------|
b|--------------------------|
g|--------------------------|
d|--------------------------|
a|--6-5-3/5-6-5/8-8\\3/5-6--|
D|--------------------------|

e|----------------------------------|
b|----------------------------------|
g|----------------------------------|
d|----------------------------------|
a|--5h6p5h6p5h6p5h6-3/5-6-5/8\\3/5--|
D|----------------------------------|

Next: (w/ flanger)
e|-----0--|
b|-----3--|
g|-----2--|
d|-----0--|  X4
a|--0--0--|
D|--0--0--|

e|-------------------------------------|
b|-------------------------------------|
g|-------------------------------------|
d|-------------------------------------|  X4
a|-----3\\---------------3\\-5\\-------|
D|--0------5\\--3//5--0----------3//5--|

6:24
e|--------------------------------|
b|--3--3--3--3--3--3--3--3-15\13--|
g|--2--2--2--2--2--2--2--2-14\12--|
d|--0--0--0--0--0--0--0--0--0--0--|
a|--0--0--0--0--0--0--0--0--0--0--|
D|--0--0--0--0--0--0--0--0--0--0--|

e|---------------|
b|---------------|
g|---------------|
d|---------------|  X8
a|---------------|
D|--0h2p0-0h2bp0-|

e|------------------|
b|------------------|
g|------------------|
d|--------0---------|  X7
a|------------------|
D|--0h2p0---0h2p0-3-|

  (volume swell)
e|---------|
b|---------|
g|---------|
d|--0^^^^--|
a|--0^^^^--|
D|--0^^^^--|
                                 _
e|--------0----------|            \
b|--------3----------|             |
g|--------2----------|             |
d|--0h2p0-0-0h2p0-3--|  X3         |
a|--0h2p0---0h2p0-3--|            /
D|--0h2p0---0h2p0-3--|           | 
                                 \
e|--------0----------------|     / X4
b|--------3----------------|     |
g|--------2----------------|      \
d|--0h2p0-0-0h2p0-3-2p0h3--|       |
a|--0h2p0---0h2p0-3-2p0h3--|       |
D|--0h2p0---0h2p0-3-2p0h3--|     _/



7:24 (mute open)
e|------------------|
b|--X-X-X-2-2-2--X--|
g|--X-X-X-2-2-2--X--|
d|--X-X-X-2-2-2--X--|
a|--X-X-X-2-2-2--X--|
D|--X-X-X-2-2-2--X--|
hpm  * * * * * *  *

Semi-solo #3 (with ring modulator on the beginning note)
e|---------------------------------------------------|
b|---------------------------------------------------|
g|---------------------------------------------------|
d|--12--12~~~\10~~~/15~~~-10/12~~~\10~~~/15~~~~\\\\--|
a|---------------------------------------------------|
D|---------------------------------------------------|
ph  *

this part is wacked!!!! I had to tear it up a second at a time w/ Acid pro
this is almost perfect, Adam might give me a shiny star sticker!!!
e|-----------------------------------------------------------------|
b|-----------------------------------------------------------------|
g|---------7-7-7--8-7-------5--5-5/10-10-10-10-10-10//11-11-11-11--|
d|--0--0-0-7-7-7--8-7-0-1-0-5--5-5/10-10-10-10-10-10//11-11-11-11--|
a|--0--0-0-5-5-5--6-5-0-1-0-3--3-3//8--8--8--8--8--8---8--8--8--8--|
d|--0--0-0------------0-1-0----------------------------------------|

e|------------------------------------|
b|------------------------------------|
g|-------------------------5-5--------|
d|--0h1p0-0---0--3-0--3-0--5-5--0--3--|
a|--0h1p0-0---0--3-0--3-0--3-3--0--3--|
D|--0h1p0-0---0--3-0--3-0-------0--3--|

e|---------------|
b|---------------|
g|---------------|
d|--0h2p0-0h2bp0-|  X8
a|--0h2p0-0h2bp0-|
D|--0h2p0-0h2bp0-|

e|---------|
b|--3-3-3--|
g|--2-2-2--|
d|--0-0-0--|  X8
a|--0-0-0--|
D|--0-0-0--|

OK so i want you to email me anyways because im nervous about that wacked part its
too insane to tab easily(matbe thats why i spent 4 hours on it).  What a great song
to start of the best cd!

thanks for taking the time
sincerly,
Ron the Lid
_____________________________________________________________________________
2. Eon Blue Apocalyps
---
Eon Blue Apocalypse Tab by Tool, www.Ultimate-Guitar.Com

Dropped-D tuning

pick the high D string very close the bridge, and very quickly, to get a 
tremolo sound. use a delay.

~=tremolo pick
h=hammer on
p=pull off
/=slide

e---------------------------------------------------------------------------
b---------------------------------------------------------------------------
g---------------------------------------------------------------------------
d--0~~~~~~~~~~~~~~~~~~~~~~~~~~~~~~~~~~~~~~~~~~~~~~~~~~~~~~~~~~~~~~~~~~~~~~~~
a--------------h3---h5----------h3---h5-------------------h8--------h3---h5-
d------------------------------------------h3---h5--------------------------

e---------------------------------------------------------------------------
b---------------------------------------------------------------------------
g-~~~~~~~~~~~~~~~~~~~~~~--3--p2--2------------------------------------------
d-------------------------------------3/5---5/7--3--------------------------
a---h3---h5-----------------------------------------------------------------
d------------h3--h5---p0------------------------------0---------------------

e---------------------------------------------------------------------------
b------------------------------------------------------------------------3--
g--3--p2--2----------------0--------------------------------------------2---
d--------------3/5---5/7--5-------5---------------5--------------------0----
a------------------------------------6-----6--5--6-----6--5--6--1--0--------
d---------------------------------------------------------------------------

tabbed by drew j

_____________________________________________________________________________
3. The Patient
---
The Patient Tab by Tool, www.Ultimate-Guitar.Com

Tuning: Dropped-D
Adam Jones isnt the only one that can correct tabs

Notes:
Bf = bend full step
Bh = bend half step
Bfr = bend full and release
Bhr = bend half and release
~~ = vibrato
h = hammer-on
p = pull-off
/ = slide up
\ = slide down

pm = palm mute
x  = muted string
AH = artificial harmonic
NH = natural harmonic


INTRO


Very light distortion or no distortion at all.
  Rhy. Fig. 1:
e|-----------------------------------------------
B|-----------------------------------------------
G|-----------------------------------------------
D|------------2-----------2-------2-------2------
A|--------5-----------5-------3-------0----------    4 Times
D|----3-----------0------------------------------
   pm............................................


Over Rhy. Fig. 1 
Clean guitar with Wah (push and release pedal on each note) :
    Bhr                    Bhr
e|-----------------------------------------------
B|-----------------------------------------------
G|-------------------------------------5---2-----
D|--2----0------5---2------2----0----------------
A|-----------------------------------------------    8 Times
D|-----------------------------------------------


Rhy. Fig. 2:
e|-----------------------------------------------
B|-----------------------------------------------
G|-----------------------------------------------
D|-----------------------------------------------
A|---0---3---5---0---7---0---3---5---0---7-------    4 Times
D|-----------------------------------------------
   pm............................................


(Last time do not palm mute the last 2 notes. They echo and fade 
out.)


VERSE


[These lyrics with Rhy. Fig. 1]
"A groan of tedium escapes me,
Startling the fearful.
Is this a test? It has to be,
Otherwise I can't go on.
Draining patience, drain vitality.
This paranoid, paralyzed vampire act's a little...


...old"
e|-----------------------------------------------
B|-----------------------------------------------
G|-----------------------------------------------
D|-----------------------------------------------
A|-----0---3---5---0---7---0---3---5---0---7-----    4 Times
D|-----------------------------------------------
   pm............................................


(Play with no distortion, fourth time let the last 2 notes ring without 
palm muting.)


BRIDGE


[Repeat these lyrics 2 times over the next bar]

"But I'm still right here...
Giving blood, keeping faith...
And I'm still right here..."
e|---------------------------------------------
B|---------------------------------------------
G|---------------------------------------------
D|---------------------------------------------
A|---0---3---5---0---7---0---3---5---0---7-----      8 Times
D|---------------------------------------------
   pm........................................


(Last time don't palm mute the last 2 notes)


CHORUS
(Play with heavy distortion)
Rhy. Fig. 3
e|---------------------------------------------------
B|---------------------------------------------------
G|---------------------------------------------------
D|----3-----0-----5-----7----------------------------
A|----3-----0-----5-----7---------------5--7--3--0---  3 Times
D|----3-----0-----5-----7---------------5--7--3--0---
				     pm............
then lyrics come in:


  "Wait it out..."                  AH AH AH
e|-------------------------------------------------
B|-------------------------------------------------
G|-------------------------------------------------
D|----3-----0-----5-----7----------/7--7--7^^^\----
A|----3-----0-----5-----7-------------------------- 
D|----3-----0-----5-----7--------------------------


  "Gonna wait it out..."
       AH   Bhr          AH          AH
e|-----------------------------------------------
B|-----------------------------------------------
G|-----5----------------5-----------5------------
D|-7-----5--7-------7-----5---7-7-----5--7-------
A|-----------------------------------------------
D|-----------------------------------------------


	     "Be patient..."
       AH         AH     Bhr        AH         AH    
e|---------------------------------------------------------
B|---------------------------------------------------------
G|-----5----------5-----------------5----------5-----------
D|--7-----5--7-7-----5---7-------7-----5--7-7-----5--7-----
A|---------------------------------------------------------
D|---------------------------------------------------------


       AH         AH     Bhr        AH         AH    
e|---------------------------------------------------------
B|---------------------------------------------------------
G|-----5----------5-----------------5----------5-----------
D|--7-----5--7-7-----5---7-------7-----5--7-7-----5--7-----
A|---------------------------------------------------------
D|---------------------------------------------------------


       AH         AH     Bhr        AH         AH    Bh and keep bent
e|---------------------------------------------------------
B|---------------------------------------------------------
G|-----5----------5-----------------5----------5-----------
D|--7-----5--7-7-----5---7-------7-----5--7-7-----5--7-----
A|---------------------------------------------------------
D|---------------------------------------------------------


Rhy. Fig. 3
"If there were no reward..."				
	"No loving embrace..."
			  AH                  

AH......................................
e|----------------------------------------------------
B|----------------------------------------------------
G|------------------------5---------------------------
D|--7/8--7--5--7^^^----7-----5--7--7/8--7--5--7^^^----
A|----------------------------------------------------
D|----------------------------------------------------

--------------------------------
--------------------------------
---5----------------------------
7-----5--7--7/8--7--5--7^^^-----
--------------------------------
--------------------------------
					
	"This tedious path..."
    AH..............................................................
e|------------------------------------------------------------------
B|------------------------------------------------------------------
G|------5------------------------------5----------------------------
D|---7-----5--7--7/8--7--5--7^^^----7-----5--7--7/8--7--5--7^^^-----
A|------------------------------------------------------------------
D|------------------------------------------------------------------


						"I 
certainly would've..."
    AH..............................................................
e|------------------------------------------------------------------
B|------------------------------------------------------------------
G|------5------------------------------5----------------------------
D|---7-----5--7--7/8--7--5--7^^^----7-----5--7--7/8--7--5--7^^^-----
A|------------------------------------------------------------------
D|------------------------------------------------------------------


    AH............................Bh
e|-----------------------------------
B|-----------------------------------
G|------5----------------------------
D|---7-----5--7--7/8--7--5--7^^^^^7--
A|-----------------------------------
D|-----------------------------------


  " By now..."
e|--------------------------------------------------------
B|--------------------------------------------------------
G|--------------------------------------------------------
D|--------------------------------------------------------
A|--12-/-15--10--12^^^--12--12-10-12--12-/-15--10--12^^^--
D|--------------------------------------------------------

----------------------------------
----------------------------------
----------------------------------
----------------------------------
12--12-10-12--12-/-15--10--12^^^--
----------------------------------
					

	      "Gonna wait it out..."
e|---------------------------------------------------
B|---------------------------------------------------
G|---------------------------------------------------
D|---------------------------------------------------
A|--12--12-10-12--12-/-15--10--12^^^--12--12-10-12---
D|---------------------------------------------------

------------------------------------------
------------------------------------------
------------------------------------------
14-/-17--12--14----14--12-/-14------------
12-/-15--10--12----12--10-/-12------------
------------------------------------------

e|------------------------------------------------
B|------------------------------------------------
G|------------------------------------------------
D|--14-/-17--12--14----14--12-/-14---14-/-17--12--
A|--12-/-15--10--12----12--10-/-12---12-/-15--10--
D|------------------------------------------------

--------------------------------------------
--------------------------------------------
-----------------------9-/-12--7--9----9-7--
14----14--12-/-14------7-/-10--5--7----7-5--
12----12--10-/-12---------------------------
--------------------------------------------

There lyrics over next bar:


"If there were no desire to heal
A damaged and broken man along
This tedious path I've chosen here
I certainly would've walked away...
e|-------------------------------------------
B|-------------------------------------------
G|-------------------------------------------
D|-------------------------------------------
A|---0---3---5---0---7---0---3---5---0---7---     8 Times
D|-------------------------------------------


  ...by now"
e|-------------------------------------------
B|-------------------------------------------
G|-------------------------------------------
D|-------------------------------------------
A|---0---3---5---0---7---0---3---5---0---7---      4 Times
D|-------------------------------------------
   pm.......................................


e|-------------------------------------------
B|-------------------------------------------
G|-------------------------------------------
D|-------------------------------------------
A|---5---3---5---0---7---0---3---5---0---7---      4 Times
D|-------------------------------------------
   pm.......................................




       "And I still may ... (sigh) ... I still may"
     NH  NH  NH   NH  NH  NH   NH  NH  NH   NH  NH
e|---------------------------------------------------
B|----------------------------------------------------
G|----------------------------------------------------
D|----------------------------------------------------
A|---5-------------------------5----------------------
D|-------5---7----4---5---7--------5---7----4---5-----


            1st time only                 7 times
e|-----------------------|-----------------------|
B|-----------------------|-----------------------|
G|-----------------------|-----------------------|
D|---0---3---5-------7---|-----------5-------7---|
A|---0---3---5-------7---|-----------5-------7---|
D|---0---3---5---0---7---|---0---0---5---0---7---|
                 pm          pm...       pm 


e|---------------------------------------------
B|---------------------------------------------
G|---------------------------------------------
D|---------------------------------------------
A|---------------------------------------------   4 Times
D|----3---0---1---0---0---1---3---0---2---1----
    pm.........................................



e|---------------------------------------------
B|---------------------------------------------   
G|---------------------------------------------
D|----3-----------0---0------------------------
A|----3-----------0---0------------------------
D|----3---0---0---0---0---1---3---0---1---0----
          pm...           pm.................  

e|-----------------------------------------------------------
B|-----------------------------------------------------------   
G|-----------------------------------------------------------
D|----3-----------0---0------------------------3-----------0-
A|----3-----------0---0-h-3--------------------3-----------0-
D|----3---0---0---0---0-h-3---3---0---1---0----3---0---0---0-
          pm...           pm.................      pm....    

------------------------
------------------------
------------------------
0-----------------------
0-h-3-------------------
0-h-3---3---0---1---0---
    pm.................

e|-------------------------------------------------------
B|-------------------------------------------------------
G|-------------------------------------------------------
D|-------------------------------------------------------
A|---------------5-------------------5-------------------
D|---5---7---7---5---7---5---7---7---5---7---5---7---7---
     pm.......       pm...........       pm...........       

---------------------------------------
---------------------------------------
---------------------------------------
---------------------------------------
5-------------------5-------5----------
5---7---5---7---7---5---7---5---7---7--
    pm............  pm      pm....

     
e|---------------------------------------------------------------
B|---------------------------------------------------------------
G|---------------------------------------------------------------
D|---------------------------------------------------------------
A|---5-------5-----------5-------5-----------5-------5-----------
D|---5---7---5---7---7---5---7---5---7---7---5---7---5---7---7---
         pm      pm....      pm      pm....      pm      pm....

-------------------
-------------------
-------------------
-------------------
----7--------------
5---7---5---7---7--
         
    AH..........................................................................
e|------------------------------------------------------------------------------
B|------------------------------------------------------------------------------
G|------------------------------------------------------------------------------
D|---------5---7---7-------------------------------5---7---7--------------------
A|-5---7---------------5---7---------------5---7---------------5---7------------
D|-----------------------------5---7---7------------------------------5---7---7-

    AH..................................................................
e|----------------------------------------------------------------------
B|----------------------------------------------------------------------
G|----------------------------------------------------------------------
D|----------5---7---7-------------------------------5---7---7-----------
A|--5---7---------------5---7---------------5---7---------------5---7---
D|------------------------------5---7---7-------------------------------


On the next bars lyrics are in sync with the notes 
e|----------------------------------------------------
B|----------------------------------------------------
G|------------4----5----4---------4---------0---------
D|-------2-------------------2---------2---------2----
A|--0-------------------------------------------------
D|----------------------------------------------------

---------------------------------------------------
---------------------------------------------------
----------4----5----4---------4---------0----------
-----2-------------------2---------2---------2-----
0--------------------------------------------------
---------------------------------------------------



e|------------------------------------------------------
B|------------------------------------------------------
G|--------------4----5----4---------4---------0---------
D|---------2-------------------2---------2---------2----
A|----0-------------------------------------------------
D|------------------------------------------------------

----------------------------------------------------
----------------------------------------------------
----------4----5----4---------4---------0-----------
-----2-------------------2---------2---------2--/---
0---------------------------------------------------
----------------------------------------------------


E|----------------7-----8-----7-----------7-----------------
B|----------5-----------------------5-----------5-----8----5
G|----------------------------------------------------------
D|-/--7-----------------------------------------------------
A|----------------------------------------------------------
D|----------------------------------------------------------

-------------7-----8-----7-----------7--------------------
-------5-----------------------5-----------5-----8-----5--
----------------------------------------------------------
-7--------------------------------------------------------
----------------------------------------------------------
----------------------------------------------------------

E|----------------7-----8-----7-----------7-----------------
B|----------5-----------------------5-----------5-----8----5
G|----------------------------------------------------------
D|----7-----------------------------------------------------
A|----------------------------------------------------------
D|----------------------------------------------------------

------------7-----8-----7-----5-----7-----5---------
------5-----------------------------------------8---
----------------------------------------------------
7---------------------------------------------------
----------------------------------------------------
----------------------------------------------------

   
E|----------------------------------------------------------------
B|------------------------------------------------3-------6---6---
G|----9---9---9---9----\---7---7------------------2-------5---5---
D|----7---7---7---7----\---5---5------0---0---0---0---0---3---3---
A|----7---7---7---7----\---5---5------0---0---0---0---0---3---3---
D|----7---7---7---7----\---5---5------0---0---0---0---0---3---3---


  
E|----------------------------------------------------------------
B|----------------10---\---9---9------------------3-------6---6---
G|----9---9---9---9----\---7---7------------------2-------5---5---
D|----7---7---7---7----\---5---5------0---0---0---0---0---3---3---
A|----7---7---7---7----\---5---5------0---0---0---0---0---3---3---
D|----7---7---7---7----\---5---5------0---0---0---0---0---3---3---



E|----------------------------------------------------------------
B|----------------10---\---9---9------------------3-------6---6---
G|----9---9---9---9----\---7---7------------------2-------5---5---
D|----7---7---7---7----\---5---5------0---0---0---0---0---3---3---
A|----7---7---7---7----\---5---5------0---0---0---0---0---3---3---
D|----7---7---7---7----\---5---5------0---0---0---0---0---3---3---

   
E|----------------------------------------------------------------
B|----------------10---\---9---9------------------3-----------6---
G|----9---9---9---9----\---7---7------------------2-----------5---
D|----7---7---7---7----\---5---5------0---0---0---0-------0---3---
A|----7---7---7---7----\---5---5------0---0---0---0-------0---3---
D|----7---7---7---7----\---5---5------0---0---0---0-------0---3---


"Gonna wait it out" 4 times over Rhy. Fig 1

END:
						
      slowly.......................
e|-------------------------------------
B|-------------------------------------	
G|-------------------------------------
D|------------2-----------2-let ring---
A|--------5-----------5----------------
D|----3-----------0--------------------
   pm...............

tabbed by drew j
_____________________________________________________________________________
4. Mantra
---(all synth, weird humming noises)
_____________________________________________________________________________
5. Schism
---
Schism Tab by Tool, www.Ultimate-Guitar.Com

Artist= tool
Album= lateralus
Song= schism
Tabbed by Bryan Rague, email me at apache_87@hotmail.com
This is the whole song put together for ya so enjoy
Tuning from low to high= D A D G B E
h = hammer     /=slide up
PM =palm mute  \=slide down
  From top to bottom: 
     Intro:            
|------------|     |------------------------|              
|------------|     |------------------------|
|-3--2--5--7-|x2   |------3-2-------3-2-5---|x4
|-0--3--5--8-|     |---3h5-0-0---3h5-0-0-0--|
|------------|     |------------------------|
|------------|     |------------------------|
                    PM-------------------PM

(listen to song to know when to play notes)
|----------------3----------5-------------------|
|---3--------------3----------3-----------------|
|-----------------------------------------------|x1
|-----0-----------------------------------------|
|-----------------------------------------------|
|--------------------------------------- -------|

|---------------------                                      
|------------------------|
|------5-4-------5-4-7---|
|---5h7-------5h7--------|x4     
|-------0-0-------0-0-0--|
|------------------------|
  PM-------------------PM

Interlude #1
|------------------------------|
|------------------------------|
|------------------------------|
|--------10-9---------10-9-12--|x4
|---10h12--0-0---10h12--0-0--0-|
|------------------------------|

|----------------                                           
|------------------------|
|------5-4-------5-4-7---|
|---5h7-------5h7--------|x8    
|-------0-0---------0-0--|
|------------------------|
  PM-------------------PM
 

Interlude #2
|------------------------------|
|------------------------------|
|------------------------------|
|--------10-9---------10-9-12--|x4
|---10h12--0-0---10h12--0-0--0-|
|------------------------------|

|--------------------------------|
|--------------------------------|
|--------------------------------|
|-0-x-x-3-x-x-5-3-x-x-3-5-5------|
|-0-x-x-3-x-x-5-3-x-x-3-5-5----5-|
|-0-x-x-3-x-x-5-3-x-x-3-5-5-3h5--|x4

|----------------                                           
|------------------------|
|------5-4-------5-4-7---|
|---5h7-------5h7--------|x8     
|-------0-0-------0-0-0--|
|------------------------|
  PM-------------------PM

Interlude #3**do same as first interlude 4x then do this
|--------------------| end part whole lots of times until
|--------------------|interlude 4
|--------------------|
|-----------10-9-12--|
|------10h12--0-0--0-|
|--------------------|

Interlude #4
|--------------------------------------------------|
|--------------------------------------------------|
|--------------------------------------------------|
|--------------------------------------------------|
|--14---17---14---19---12---14---10---12-10-12-----|
|----0-0--0-0--0-0--0-0--0-0--0-0--0-0--0--0--0----|        (PM all notes on D sting)



At end of interlude #4 play this while slowly going from
|------------------------------|PM to open strings
|------------------------------|
|------------------------------|
|------------------------------|
|---14---17---14---17---14-14--|
|-----0-0--0-0--0-0--0-0--0--0-|


|-----------------------------------------------------|
|-----------------------------------------------------|
|-------------------9-----12-----9-----12-----9---9---|
|-10---5----7---7---x------x-----x------x-----x---x---|x3
|---8---3--5----7---7-0-0-10-0-0-7-0-0-10-0-0-7-0-7-0-|
|---------------7-------------------------------------|

|--------------------|
|--------------------|
|--------------------|
|-10--5----7--5------|x1
|---8--3--5---5------|
|-------------5------|

|----------------------------------------|
|----------------------------------------|
|----------------------------------------|
|-7/8\7-7/8\7--10-8-10--5-3-5--5-5-----0-|x1
|-7/8\7-7/8\7---8-8-8---3-3-3--3-3-------|
|-7/8\7-7/8\7---8-8-8---3-3-3------0-0---|

|------------------------|
|------------------------|
|--------------------7---|
|---0----------------7---|x3
|--0-----0----3------5---|
|-----0-5--0-3--0-0------|



|------------|
|------------|
|------------|
|---0--------|x1
|--0-----0---|
|-----0-5-0--|

|-----------------------------------|
|-----------------------------------|
|-----------------------------------|
|-3-0-2-0-0-3-0-2-0-5-0-0-----------|x4
|-3-0-2-0-0-3-0-2-0-5-0-0-----------|
|-3-0-2-0-0-3-0-2-0-5-0-0-----------|
PM-----------------------PM


|----------------------------------------------|x4
|----------------------------------------------|
|----------------------------------------------|
|x-x-x-x-3-x-x-2-x-x-x-x-3-x-x-2-x-x-5-x-x-x-x-|
|x-x-x-x-3-x-x-2-x-x-x-x-3-x-x-2-x-x-5-x-x-x-x-|
|x-x-x-x-3-x-x-2-x-x-x-x-3-x-x-2-x-x-5-x-x-x-x-|
**hold last chord on the last time through this part




|----------------|
|----------------|repeat this till end of song.
|----------------|
|----------------|*lots of distortion here
|-------5---6-3--|
|--0-3h5-0-0-0---|
 PM------------PM
**(lightly PMed) 
_____________________________________________________________________________
6. Parabol
---(note: i don't agree with the drop b tuning but it doesnt matter because you don't need the 6th string for this song)

Parabol Tab by Tool, www.Ultimate-Guitar.Com

Band : Tool
Album: Lateralus
Track: 6
Song : Parabol

Part : Guitar
Tuning: drop B/E

Tabbed: Nolan Venhola
Email : nolan@tooltabs.net
Visit : Tooltabs.net

Legend

nh - natural harmonic
 ph - pinch harmonic
 
pm - palm mute
 x - muted string
 
h - hammer on
 p - pull off
 
// - slide down
 \\ - slide up
 
b - bend
 ~~ - vibrato
 
<7> - natural harmonic
 x/// - pick scrape (directions same as slide)
 

(clean w/chorus, slight delay)
e---------------------------------
b---------------------------------
g---------------------------------
d--0h2---7h9-----0h2---7h9p7------ x15
e--0-----0-------0-----0----------
b---------------------------------

*pause*

(distorion)

*feedback*
_____________________________________________________________________________
7. Parabola
---
Parabola Tab by Tool, www.Ultimate-Guitar.Com

Tool - Parabola.
 Tabbed by Adam Wallace - awall011@home.com.
  

Tool - Parabola

>From the album Lateralus

Transcribed by Adam Wallace

Email - awall011@home.com


Drop D tuning

-----------------------------------------------------------------
-------------------------10h-12-12-12-----------10h12p10-10-10b--
---------------7h9-9-9-9--------------7h9-9-9-9------------------
-0h2-2-2p0-------------------------------------------------------
-0h2-2-2p0-(x4)----------------------------------------------------
-0h2-2-2p0-------------------------------------------------------


----------------------------------
----------------------------------
----------------------------------
-x-2---x-2---x-2---x-2-x-2-x-2-2--
-x-2---x-2---x-2---x-2-x-2-x-2-2--
-x-2---x-2---x-2---x-2-x-2-x-2-2--


---------------------------
---------------------------
---------------------------
-5-7-2------5-7-2-0-7-5-5--
-5-7-2-(x3)-5-7-2-0-7-5-5--
-5-7-2------5-7-2-0-7-5-5--


----------------------------------------------------------------------
----------------------------------------------------------------------
----------------------------------------------------------------------
-0h2-2-2p0------x-2--x-2--0--0h2-2-2p0--2-4-0------2--0h2-2-2p0-------
-0h2-2-2p0-(x7)-x-2--x-2--0--0h2-2-2p0--2-4-0-(x3)-2--0h2-2-2p0-(x4)--
-0h2-2-2p0------x-2--x-2--0--0h2-2-2p0--2-4-0------2--0h2-2-2p0-------

solo (incomplete)
----------------------------------------------------------------
-----------10h12-12-12-12-----------10h12p10-10-15-14-10h12-14--
-7h9-9-9-9----------------7h9-9-9-9-----------------------------
----------------------------------------------------------------
----------------------------------------------------------------
----------------------------------------------------------------


--------------------------------------------------------------------------------------
-(don't know first bit)--10-10h12p10-8-7-8-7\\5--(pinch harmonics, not sure of notes)--
--------------------------------------------------------------------------------------
--------------------------------------------------------------------------------------
--------------------------------------------------------------------------------------
--------------------------------------------------------------------------------------


------------------------------------------------------
------------------------------------------------------
------------------------------------------------------
-0h2-2-2p0------x-2--x-2--0--0h2-2-2p0--2-4-0------2--
-0h2-2-2p0-(x7)-x-2--x-2--0--0h2-2-2p0--2-4-0-(x3)-2--
-0h2-2-2p0------x-2--x-2--0--0h2-2-2p0--2-4-0------2--


------------------------------------------------------------------
------------------------------------------------------------------
---------------4---------------4---------------4---------------4--
---------------4-2-------------4-2-------------4-2-------------4--
---------------2-2-------------2-2-------------2-2-------------2--
-----------------2---------------2---------------2----------------

bass line
-2-0-5-0-2-0-9-0-2-0-5-0-2-0-9-0-2-0-5-0-2-0-9-0-2-0-5-0-2-0-9-0--


-------------------------------------------------
-------------------------------------------------
-------------------------------------------------
-2-0--/7-5\\-------2-0-x-x-x-x-/7-5\\--------------
-2-0--/7-5\\-(x4)--2-0-x-x-x-x-/7-5\\-(x4)---------
-2-0--/7-5\\-------2-0-x-x-x-x-/7-5\\--------------


--------------------------------------------------------------------
--------------------------------------------------------------------
--------------------------------------------------------------------
--------------------------------------------------------------------
---2---5--------2-----(x4)--2p0-------------2p0---------------(x2)--
-2---5---0--2-0---0-5-----------5p4p2p0-0-0-----5p4p2p0-2-2-2-------


-------------------------------------------------------------------------
-------------------------------------------------------------------------
-------------------------------------------------------------------------
-------------------------------------------0h2p0--------------0h2--------
---2---5--------2------------------0h2-----------(x3)-----0h2-----0h2----
-2---5---0--2-0---0-5--0h2-x-x-x-x-----x-x------------0h2-------------0--


--------------------------------------------
--------------------------------------------
--------------------------------------------
-x-x-x-x-x-2-------2-5/7-0-5/7-2/4-5\\4-0-2--
-x-x-x-x-x-2-(x12)-2-5/7-0-5/7-2/4-5\\4-0-2--
-x-x-x-x-x-2-------2-5/7-0-5/7-2/4-5\\4-0-2--


-------------------------------------------------
-------------------------------------------------
-----------------------------4-------------------
-2h4-2h4-2h4-2/5\\2/5-2-2-0-0-4-------------------
-2h4-2h4-2h4-2/5\\2/5-2-2-0-0-2--(repeat to end)--
-2h4-2h4-2h4-2/5\\2/5-2-2-0-0---------------------

i know it's not perfect but it's pretty damn close, so don't whine to me about it.
if anyone figures out rest of the solo or the quiet bit at the ens, plz mail it to me.
otherwise, that's it. enjoy.
 
 
 

_____________________________________________________________________________
8. Ticks and Leeches
---
Ticks And Leeches Tab by Tool, www.Ultimate-Guitar.Com

Band : Tool
Album: Lateralus
Track: 8
Song : Ticks & Leeches

Part : Guitar
Tuning: drop D

Tabbed: Nolan Venhola
Email : nolan@tooltabs.net
Visit : Tooltabs.net
Legend
nh - natural harmonicph - pinch harmonic
            pm - palm mutex - muted string
            h - hammer onp - pull off
            // - slide down\\ - slide up
            b - bend~~ - vibrato
    



(distorion)

*rest, 8 bars*

*volume off, delay on, hit open D5 chord and slowly bring in volume over 2 bars*

*feedback*

(distorion)

*rest, 8 bars*

*volume off, delay on, hit open D5 chord and slowly bring in volume over 2 bars*

*feedback*

e------------------------
b------------------------
g------------------------
d--///(pick scratch)///--
a------------------------
d------------------------

e-------------------------------
b-------------------------------
g-------------------------------
d--14---12-14-14b---14---14-12--
a-------------------------------
d-------------------------------

e-------------------------------------
b---------------------------------15--
g------------------------------14-----
d--14---12-14-14ph--14---14-12--------
a-------------------------------------
d-------------------------------------

e------------------------------------------------------------------------------
b--17-17-17-17-17-15--17-17-17-17-17-15--17-17-17-17-17-15--15-15-15-15-15-15--
g--16-16-16-16-16-14--16-16-16-16-16-14--16-16-16-16-16-14--14-14-14-14-14-14--
d--14-14-14-14-14-12--14-14-14-14-14-12--14-14-14-14-14-12--12-12-12-12-12-12-- x2
a------------------------------------------------------------------------------
d------------------------------------------------------------------------------

(delay off)

e----------------------------
b----------------------------
g----------------------------
d---------------------------- x5
a--------0h2-----------------
d--2-0h2-----0-2-0h3p0-2h3---

e--------------------------
b--------------------------
g--------------------------
d--2----------//14------0--
a--2----------//14------0--
d--2----------//14------0--

e--------------------------
b--------------------------
g--------------------------
d-------------------------- x3
a--777---777---777---555---
d--------------------------
   pm-   pm-   pm-   pm-

e-------------------------
b-------------------------
g-------------------------
d----------------------7--
a--777---777---777---7----
d-------------------------
   pm-   pm-   pm-   ph-

e---------------------------
b---------------------------
g---------------------------
d---------------------------
a--------0h2----------------
d--2-0h2-----0-2-0h3p0-2h3--

e-----------------------------
b-----------------------------
g-----------------------------
d-----------------------------
a--------0h2-----------3---0--
d--2-0h2-----0-2-0h3p0---5----

e---------------------------
b---------------------------
g---------------------------
d---------------------------
a--------0h2----------------
d--2-0h2-----0-2-0h3p0-2h3--

e---------------------------
b---------------------------
g---------------------------
d-----------------10-10b-0--
a--------0h2------10-10b-0--
d--2-0h2-----0-2--10-10b-0--

e-----------------------------
b-----------------------------
g-----------------------------
d--2-xx-10-x-2-x-9---9-5-4-0-- x3
a--2-xx-10-x-2-x-9---9-5-4-0--
d--2-xx-10-x-2-x-9---9-5-4-0--
                     pm - -|

e-----------------------------
b-----------------------------
g-----------------------------
d--2-xx-10-x-2-x-9------------
a--2-xx-10-x-2-x-9------------
d--2-xx-10-x-2-x-9---9-5-4-0--

e---------------------------------------------
b---------------------------------------------
g---------------------------------------------
d----2p0-------3-2--2p0-----2p0-------3-2--0-- x2
a--------3p2p0------------------3p2p0---------
d--2----------------------2-------------------

e-----------12----------------------------------------
b--------------12------//(string rubs with delay)//---
g----------------------////////////////////////////---
d--12b~-----------------------------------------------
a-----------------------------------------------------
d-----------------------------------------------------

*rest for 2 bars*

e----------------------
b----------------------
g----------------------
e--2--0-2--2-0-2--2-3-- x3
b--2--0-2--2-0-2--2-3--
g--2--0-2--2-0-2--2-3--

e---------------------------
b---------------------------
g---------------------------
e--2--0-2--2---------------- x3
b--2--0-2--2-3---3-3-3h5----
g--2--0-2--2---5---------0--

e-----------------------------
b-----------------------------
g-----------------------------
d--2-xx-10-x-2-x-9---9-5-4-0-- x4
a--2-xx-10-x-2-x-9---9-5-4-0--
d--2-xx-10-x-2-x-9---9-5-4-0--
                     pm - -|

e---------------------------------------------
b---------------------------------------------
g------------------------------------------5--
d--0h2-2-2-0-5-0-3-0h1-0h2-2-2-0-5-0-3-0h2-5-- x2
a--0h2-2-2-0-5-0-3-0h1-0h2-2-2-0-5-0-3-0h2----
d--0h2-2-2-0-5-0-3-0h1-0h2-2-2-0-5-0-3-0h2----
  pm - - - - - - - - - - - - - - - - - - - -|

e---------------------------------------------
b---------------------------------------------
g------------------------------------------5--
d--0h2-2-2-0-5-0-3-0h1-0h2-2-2-0-5-0-3-0h2-5-- x2
a--0h2-2-2-0-5-0-3-0h1-0h2-2-2-0-5-0-3-0h2----
d--0h2-2-2-0-5-0-3-0h1-0h2-2-2-0-5-0-3-0h2----

*hold*

(clean)

e-----------------------------------------
b------------------------------------3----
g--------------------------------2-2-2-2--
d--4--2-----2--4-2--4--2--5--0---0-0-0-0-- x15
a--2--2--2--2--2-2--2--2--5--0-0-0-----0--
d--2--2--2--2--2-2--2--2--5--0-0----------

*rest, 1 bar*

(distortion)

e------------------------------------------------------------------------
b--12-----------------------------------------12-------------------------
g--11-----------------------------------------11-------------------------
d--9--14-14-14-14--14-14-14-14--14-14-14-14---9--14--17--12-12-12-12-12-- x3
a--9--14-14-14-14--14-14-14-14--14-14-14-14---9--14--17--12-12-12-12-12--
d--9--14-14-14-14--14-14-14-14--14-14-14-14---9--14--17--12-12-12-12-12--

e------------------------------------------------------------------------
b--12--------------17-17-17-17--17-17-17-17---12-17--20--15-15-15-15-15--
g--11--------------16-16-16-16--16-16-16-16---11-16--19--14-14-14-14-14--
d--9--14-14-14-14--14-14-14-14--14-14-14-14---9--14--17--12-12-12-12-12-- x2
a--9--14-14-14-14--14-14-14-14--14-14-14-14---9--14--17--12-12-12-12-12--
d--9--14-14-14-14--14-14-14-14--14-14-14-14---9--14--17--12-12-12-12-12--

e--------------------------------------------------------------
b--12-----------------------------------------12---------------
g--11-----------------------------------------11---------------
d--9--14-14-14-14--14-14-14-14--14-14-14-14---9--14--17--12----
a--9--14-14-14-14--14-14-14-14--14-14-14-14---9--14--17--12----
d--9--14-14-14-14--14-14-14-14--14-14-14-14---9--14--17--12----
      pm - - - - - - - - - - - - - - - - - -

e--------------------------------
b--------------------------------
g--------------------------------
d-//14---12-14-14b---14---14-12--
a--------------------------------
d--------------------------------

e-------------------------------------
b---------------------------------15--
g------------------------------14-----
d--14---12-14-14ph--14---14-12--------
a-------------------------------------
d-------------------------------------

e------------------------------------------------------------------------------
b--17-17-17-17-17-15--17-17-17-17-17-15--17-17-17-17-17-15--15-15-15-15-15-15--
g--16-16-16-16-16-14--16-16-16-16-16-14--16-16-16-16-16-14--14-14-14-14-14-14--
d--14-14-14-14-14-12--14-14-14-14-14-12--14-14-14-14-14-12--12-12-12-12-12-12--
a------------------------------------------------------------------------------
d------------------------------------------------------------------------------

                                                           (feedback)
e--------------------------------------------------------------------
b--17-17-17-17-17-15--17-17-17-17-17-15--17-17-17-17-17-15--b-r-b----
g--16-16-16-16-16-14--16-16-16-16-16-14--16-16-16-16-16-14--b-r-b----
d--14-14-14-14-14-12--14-14-14-14-14-12--14-14-14-14-14-12--b-r-b----
a-------------------------------------------------------0------------
d-------------------------------------------------------0------------

e---------------------------------
b---------------------------------
g---------------------------------
d--0--(feedback)---////pick////---
a--0---------------////scrape//---
d--0------------------------------

e---------------------
b---------------------
g---------------------
d--2-\\-10-/-2-\-9-/-- x4
a--2-\\-10-/-2-\-9-/--
d--2-\\-10-/-2-\-9-/--

e-------------------------
b-------------------------
g-------------------------
d--2-00-10-0-2-0-9--9-10--
a--2-00-10-0-2-0-9--9-10--
d--2-00-10-0-2-0-9--9-10--
     pm   pm  pm

e-------------------------
b-------------------------
g-------------------------
d--2-00-10-0-2-0-9--10-9--
a--2-00-10-0-2-0-9--10-9--
d--2-00-10-0-2-0-9--10-9--
     pm   pm  pm

e-------------------------
b-------------------------
g-------------------------
d--2-00-10-0-2-0-9--9-10--
a--2-00-10-0-2-0-9--9-10--
d--2-00-10-0-2-0-9--9-10--
     pm   pm  pm

e----------------------------
b----------------------------
g----------------------------
d--2-00-10-0-2-0-9-----------
a--2-00-10-0-2-0-9-----------
d--2-00-10-0-2-0-9--9-5-4-0--
     pm   pm  pm

e------------------------------
b------------------------------
g------------------------------
d--0-0-0-0-0-0-0-0-0-0-0-0-0---
a--0-0-0-0-0-0-0-0-0-0-0-0-0---
d--0-0-0-0-0-0-0-0-0-0-0-0-0---
   pm - - - - - - - - - - -|

e---------------------------------------
b---------------------------------------
g---------------------------------------
d-10-10-000-10-10-000-10-10-000--0--2---
a-10-10-000-10-10-000-10-10-000--0--2---
d-10-10-000-10-10-000-10-10-000--0--2---
        pm-       pm-       pm-
_____________________________________________________________________________
9. Lateralus
---
Lateralus Tab by Tool, www.Ultimate-Guitar.Com

Band : Tool
Album: Lateralus
Track: 9
Song : Lateralus

Part : Guitar
Tuning: drop D

Tabbed: Nolan Venhola
Email : nolan@tooltabs.net
Visit : Tooltabs.net
Legend
nh - natural harmonicph - pinch harmonic
            pm - palm mutex - muted string
            h - hammer onp - pull off
            // - slide down\\ - slide up
            b - bend~~ - vibrato
    



(clean, delay)

e---------------------------
b---------------------------
g----------5----------------
d----7-5h7----7--7-5h7-5-0-- x3
a---------------------------
d--0------------------------

e-------------------------------------------
b-------------------------------------------
g----------5--------------------------------
d----7-5h7----7--7-5h7-5-0-----7------7----- x8
a-------------------------------------------
d--0-------------------------5------3-------

e----------------------------------------------------------------------
b----------------------------------------------------------------------
g----------------------------------------------------------------------
d--0-0-x-0-0-x-0-5-5-5-0-3--3-3-x-3-3-x-3-55-3-0-3-5-5-5--x-5-3\10-12-- x3
a--0-0-x-0-0-x-0-5-5-5-0-3--3-3-x-3-3-x-3-55-3-0-3-5-5-5--x-5-3\10-12--
d--0-0-x-0-0-x-0-5-5-5-0-3--3-3-x-3-3-x-3-55-3-0-3-5-5-5--x-5-3\10-12--

e------------------------------------------------------------------------
b------------------------------------------------------------------------
g------------------------------------------------------------------------
d--0-0-x-0-0-x-0-5-5-5-0-3--3-3-x-3-3-x-3-55-3-0-3-5-5-5--x-5-3\10-12-0--
a--0-0-x-0-0-x-0-5-5-5-0-3--3-3-x-3-3-x-3-55-3-0-3-5-5-5--x-5-3\10-12-0--
d--0-0-x-0-0-x-0-5-5-5-0-3--3-3-x-3-3-x-3-55-3-0-3-5-5-5--x-5-3\10-12-0--

*rest for 8 bars*

e---------------------------------------
b---------------------------------------
g---------------------------------------
d--7-5-3-0--0-3-3-3-3-0-0-0-0--5-5-5-5-- x7
a--7-5-3-0--0-3-3-3-3-0-0-0-0--5-5-5-5--
d--7-5-3-0--0-3-3-3-3-0-0-0-0--5-5-5-5--
   pm - - - - - - - - - - - - - - - -|

e---------------------------------------------------------
b---------------------------------------------------------
g---------------------------------------------------------
d--7-5-3-0--0-3-3-3-3-0-0-0-0--5-5-5-5--5-5-5-5--5-5-5-5--
a--7-5-3-0--0-3-3-3-3-0-0-0-0--5-5-5-5--5-5-5-5--5-5-5-5--
d--7-5-3-0--0-3-3-3-3-0-0-0-0--5-5-5-5--5-5-5-5--5-5-5-5--
   pm - - - - - - - - - - - - - - - - - - - - |

e----------------------------------------------------------------------
b----------------------------------------------------------------------
g----------------------------------------------------------------------
d--0-0-x-0-0-x-0-5-5-5-0-3--3-3-x-3-3-x-3-55-3-0-3-5-5-5--x-5-3\10-12-- x2
a--0-0-x-0-0-x-0-5-5-5-0-3--3-3-x-3-3-x-3-55-3-0-3-5-5-5--x-5-3\10-12--
d--0-0-x-0-0-x-0-5-5-5-0-3--3-3-x-3-3-x-3-55-3-0-3-5-5-5--x-5-3\10-12--

e---------------------------------------------------------------------
b--3-3--3-3----8-8-8---6--6-6--6-6------------------------------------
g--2-2--2-2----7-7-7---5--5-5--5-5------------------------------------
d--0-0--0-0--0-5-5-5-0-3--3-3---3-3--3-55-3-0-3-5-5-5--x-5-3-3h5-3-0--
a--0-0--0-0--0-5-5-5-0-3--3-3---3-3--3-55-3-0-3-5-5-5--x-5-3-3h5-3-0--
d--0-0--0-0--0-5-5-5-0-3--3-3---3-3--3-55-3-0-3-5-5-5--x-5-3-3h5-3-0--

*rest for 8 bars*

e---------------------------------------
b---------------------------------------
g---------------------------------------
d--7-5-3-0--0-3-3-3-3-0-0-0-0--5-5-5-5-- x7
a--7-5-3-0--0-3-3-3-3-0-0-0-0--5-5-5-5--
d--7-5-3-0--0-3-3-3-3-0-0-0-0--5-5-5-5--
   pm - - - - - - - - - - - - - - - -|

e-------------------------------------------------
b-------------------------------------------------
g-------------------------------------------------
d--7-5-3-0--0-3-3-3-3-0-0-0-0--5-5-5-5---5-5-5-5--
a--7-5-3-0--0-3-3-3-3-0-0-0-0--5-5-5-5---5-5-5-5--
d--7-5-3-0--0-3-3-3-3-0-0-0-0--5-5-5-5---5-5-5-5--
   pm - - - - - - - - - - - - - - - -|

e----------------------------------------------------------------------
b----------------------------------------------------------------------
g----------------------------------------------------------------------
d--0-0-x-0-0-x-0-5-5-5-0-3--3-3-x-3-3-x-3-55-3-0-3-5-5-5--x-5-3\10-12--
a--0-0-x-0-0-x-0-5-5-5-0-3--3-3-x-3-3-x-3-55-3-0-3-5-5-5--x-5-3\10-12--
d--0-0-x-0-0-x-0-5-5-5-0-3--3-3-x-3-3-x-3-55-3-0-3-5-5-5--x-5-3\10-12--

e------------------------------------------------------------------
b--3-3--3-3----8-8-8---6--6-6--6-6---------------------------------
g--2-2--2-2----7-7-7---5--5-5--5-5---------------------------------
d--0-0--0-0--0-5-5-5-0-3--3-3--3-3--3-55-3-0-3-5-5-5--x-5-3\10-12--
a--0-0--0-0--0-5-5-5-0-3--3-3--3-3--3-55-3-0-3-5-5-5--x-5-3\10-12--
d--0-0--0-0--0-5-5-5-0-3--3-3--3-3--3-55-3-0-3-5-5-5--x-5-3\10-12--

============
1st solo (w/wah, starts closed, move gradually to open)
e------------
b------------
g------------
d--0--10-12-- x7
a------------
d------------

e---------------------------------------------------------
b---------------------------------------------------------
g--9h10p9-0-----9h10h9-0---------9h10p9-0-5-4--5-0-2\7~---
d-----------7------------7-5-3----------------------------
a---------------------------------------------------------
d---------------------------------------------------------

e-----------------------------------------------------------------------------
b-----------------------------------------------------------------------------
g--9h10h9-0------------9h10p9-0-5-4--5-0-2--(rock wah back/forth)--/-5h7p5p0--
d-----------7-5-3\7~----------------------------------------------------------
a-----------------------------------------------------------------------------
d-----------------------------------------------------------------------------
============

e---------------------
b---------------------
g---------------------
d--0-10-12-12-10-12--- x2
a--0-10-12-12-10-12---
d--0-10-12-12-10-12---

e----------------
b----------------
g----------------
d--12-12-12-12--- x4
a--12-12-12-12---
d--12-12-12-12---

*rest, 8 bars*

(clean, delay)

e-----------------------------
b-----------------------------
g-----------------------------
d----7----7----7--------------
a-----------------------------
d--5----3----0----------------

e-----------------------------
b-----------------------------
g-----------------------------
d----7----7----7--5h7---------
a-----------------------------
d--5----3----0----------------

e-----------------------------
b-----------------------------
g---------------------5-------
d----7----7----7--5h7---7-----
a-----------------------------
d--5----3----0----------------

e-------------------------------------
b-------------------------------------
g---------------------5---------------
d----7----7----7--5h7---7--7-5h7-5-0-- x5
a-------------------------------------
d--5----3----0------------------------

e---------------------------
b---------------------------
g-----------5---------------
d----7--5h7---7--7-5h7-5-0-- x2
a---------------------------
d--0------------------------

e---------------------------------
b---------------------------------
g---------------------------------
d--5-7--3-7--0-7-5h7-3-7-5h7-5-0--
a--5----3----0-------3------------
d--5----3----0-------3------------

e-------------------------------
b-------------------------------
g-------------------------------
d--5-7--3-7--0-7-5h7-3-7-\-10---
a--5----3----0-------3-----10---
d--5----3----0-------3-----10---

e-------------
b-------------
g-------------
d--5----3-----
a--5----3-----
d--5----3-----

(distortion)

============
2nd solo (w/wah, this is a solo you have to 'feel' to play properly)

(first note: wah starts open (bass), gradually going to close (treble),
             then back to open, rock the wah)
(second note: wah is closed)

e---------------------------------------------------
b---------------------------------------------------
g--(tremolo pick)-----------------------------------
d------------------12~~~bbbb~~~~--///pick scrape//--
a--12~~~~~~~~~~~~-----------------------------------
d---------------------------------------------------

e---------------------------------------------------
b---------------------------------------------------
g---------------------------------------------------
d--12~~~--12-10--5-3--5--3---5-3--5--3--0h3h5-5b----
a---------------------------------------------------
d---------------------------------------------------
============

e-------------
b-------------
g-------------
d--5----3-----
a--5----3-----
d--5----3-----

e---------------
b---------------
g---------------
d--0--0-0-0-0--- x4
a--0--0-0-0-0---
d--0--0-0-0-0---

e-----------
b-----------
g-----------
d--x-0--0--- x40
a--x-0--0---
d--x-0--0---

e-------------------------------------------------------------
b--15-15--13-13--15-15--18-18----15-15--13-13--18-18--15-15---
g--14-14--12-12--14-14--17-17----14-14--12-12--17-17--14-14---
d--12-12--10-10--12-12--15-15----12-12--10-10--15-15--12-12---
a--12-12--10-10--12-12--15-15----12-12--10-10--15-15--12-12---
d--12-12--10-10--12-12--15-15----12-12--10-10--15-15--12-12---

e-----------
b-----------
g-----------
d--x-5--5--- x7
a--x-5--5---
d--x-5--5---

e-----------
b-----------
g-----------
d--x-3------
a--x-3------
d--x-3------

e--------------------------------
b--------------------------------
g--------------------------------
d--0--3--0--3-3-3--0--3-3--3--0-- x4
a--0--3--0--3-3-3--0--3-3--3--0--
d--0--3--0--3-3-3--0--3-3--3--0--
            nh -|     nh-

e------------------
b------------------
g--7~--------5-----
d-----3-3--5-------
a-----------------
Добавлено: 11.06.2012
Другие материалы по этой песне:
  • Аккорды и текст

Страница создана 24.04.2012
http://primanota.ru/tool/lateralus-album-chords.htm
Привет, Гость.
Предлагаем пройти революционный курс по гитаре.
Подарок от PrimaNota.Ru, забирай!