PrimaNota.ru - самый крупный в мире бесплатный архив песенных текстов, аккордов, табулатур и нот


Too Sorry For Apologies - Ghost Town - таба, видео

Регистрация Запомнить меня
Войти через:  Facebook Google Twitter Vk Yandex Mail.ru

Too Sorry For Apologies - Ghost Town - таба, видео

Печатать
Просмотров: 87
i'm dakota wint! this is my first tab, it probably isnt right. but it sounds good!:] 
aim-dakotasean wint
myspace.com/wint

Tuning: Standard - EADGBe

/=slide

intro
-
e-----------------------------------------------------------------------|
A-----------------------------------------------------------------------|
D--------0---------- 0----------------0-----------------0---------------|
G------0---0-------2----2----------/4---4------------------2------------|
B----2---------/3---------------/5---------------0---3------------------|
E-----------------------------------------------------------------------|


chorus

Chord: G maj        Chord: G add9
e|---3---|          e|---3---|
B|---3---|          B|---3---|
G|---0---|          G|---0---|
D|---0---|          D|---2---|
A|---2---|          A|---3---|
E|---3---|          E|---0---|


Chord: E m7         Chord: A 7sus4
e|---3---|          e|---3---|
B|---3---|          B|---3---|
G|---0---|          G|---2---|
D|---2---|          D|---0---|
A|---2---|          A|---0---|
E|---0---|          E|---0---|

Добавлено: 23.02.2012
Другие материалы по этой песне:
  • Аккорды и текст

Страница создана 23.02.2012
http://primanota.ru/too-sorry-for-apologies/ghost-town-chords.htm
Привет, Гость.
Предлагаем пройти революционный курс по гитаре.
Подарок от PrimaNota.Ru, забирай!