PrimaNota.ru - самый крупный в мире бесплатный архив песенных текстов, аккордов, табулатур и нот


Tony Rice - Gold Rush - таба, видео

Регистрация Запомнить меня
Войти через:  Facebook Google Twitter Vk Yandex Mail.ru

Tony Rice - Gold Rush - таба, видео

Печатать
Просмотров: 92
Уроки эстрадного вокала в Санкт-Петербурге
The rhythm in this TAB may be off but the notes sound about right to me. I 
encourage anyone with a good ear to improve this!
Tabbed by: Joe Pomianek


"Gold Rush" - Tony Rice Unit
Album: Unit Of Measure
Music by Bill Monroe


(Standard tuning, capo at 2nd fret)

mm ~ 140
Played clean on acoustic.

...
 ------------|
 --------0-1-|
 ----0-2-----|
 0-2---------|
 ------------|
 ------------|
                                                   
Section A


 |-----0----------------------0---|1-p-0---------------------------|
 |1h3----3-1-0-1-3----3---0-3-----|------3-1-0---------------------|
 |--------------------------------|------------2-0--------0----0---|
 |--------------------------------|----------------2-0------0----2-|
 |--------------------------------|--------------------------------|
 |--------------------------------|--------------------------------|
                                                                  

 |----------------------0---------|--0-----------------------------|
 |--------------------3---3-------|----3-1-0-------------------0-1-|
 |--------0---0-2-4---------0-2---|4---------0-2---0-------0-2-----|
 |0---0-2---4---------------------|--------------4---2-0-2---------|
 |--2-----------------------------|--------------------------------|
 |--------------------------------|--------------------------------|


 |-----0----------------------0---|1-p-0---------------------------|
 |1h3----3-1-0-1-3----3---0-3-----|------3-1-0---------------------|
 |--------------------------------|------------2-0--------0----0---|
 |--------------------------------|----------------2-0------0----2-|
 |--------------------------------|--------------------------------|
 |--------------------------------|--------------------------------|


 |----------------------0---------|--0-----------------------------|
 |--------------------3---3-------|----3-1-0-------------------0---|
 |--------0---0-2-4---------0-2---|4---------0-2---0------0------2p|
 |0---0-2---4---------------------|--------------4-----/4----------|
 |--2-----------------------------|--------------------------------|
 |--------------------------------|--------------------------------|

Section B

 |--------------------------------|--------------------------------|
 |--------------------------------|------------------------3---0---|
 |0-------------0-------0---------|----------------0---2/4-------2p|
 |--2-0---------------2---0-------|------------0-2---0-------------|
 |------2---0-2---2-3-----------0-|----0-1-/-2---------------------|
 |--------3-------------------3---|2-3-----------------------------|

 |--------------------------------|--------------------------------|
 |--------------------------------|----------------------------0---|
 |0-------------0-------0---------|--0---0-2/4-0-2---0-----0-----2p|
 |--2-0---------------2---0-----0-|2---4-----------4---3/4---------|
 |------2---0-2---2-3---------2---|--------------------------------|
 |--------3-----------------------|--------------------------------|

 |--------------------------------|--------------------------------|
 |--------------------------------|-----------------------3----0---|
 |0-------------0-------0---------|---------------0---2\4--------2p|
 |--2-0-------------0h2---0-------|-----------0-2---0--------------|
 |------2---0-2---3-----------2-0-|--0-1-\-2-----------------------|
 |--------3-----------------------|3-------------------------------|

 |--------------------------------|--------------------------------|
 |--------------------------------|--------------------------------|
 |0-------------0-------0---------|--0---0-2h4-0-2---0------0------|
 |--2-0-----0-------0h2---------0-|2---4-----------4---3/4---------|
 |------2-----2---3-----------2---|--------------------------------|
 |--------3-----------------------|--------------------------------|


[Fiddle solo]

[Mandolin solo]


Guitar Solo:

 |----------------------/3--3--3--|
 |--------------------------------|
 |--------------------------------|
 |--------------------------------|
 |--------------------------------|
 |--------------------------------|


 |3--3-----1----------------------|3-------------------------------|
 |-----2/3---2\1------------------|--------------------------------|
 |--------------3h4-0-----0---3/4-|-------------0--------------1/2-|
 |--------------------3-0---0-----|--------0-----------------------|
 |--------------------------------|----------1h2-------------------|
 |--------------------------------|--------------------3-----------|
                                                       

 |1--0----------------------------|--------3-3-----------/3--3--3--|
 |---0----------------------------|--------0-0---------------------|
 |---0--3/4-0-----0------------0--|--------0-0---------------------|
 |------------3p0--3p0-----0h2----|--------0-0---------------------|
 |---------------------1/2--------|--------------------------------|
 |--------------------------------|-----3--------------------------|


 |3--3----1-----------------------|----3---------------------------|
 |----------2p1---1---------------|--------------------------------|
 |--------------3---3/4-0-----0---|3h4-----3p0--3p0-2-5-0-3-7-0-2-5|
 |------------------------3-0---0-|-----------5--------------------|
 |--------------------------------|--------------------------------|
 |--------------------------------|--------------------------------|

 
 |--------------------------------|--------------------------------|
 |--------------------------------|-------------------------------1|
 |0---3-0-0-5---0-3/4-0-----0-----|---------0-----------------0-2--|
 |--5-------------------3p0---3p0-|-----2p0---1p0---0---0-1/2------|
 |--------------------------------|1/2------------3---3------------|
 |--------------------------------|--------------------------------|



 |--------------------3-----------|--------------------3------3----|
 |----------------0/3-------------|-----------------------------6--|
 |3\2-0-------0-2---------6\5-3-5-|3\4-0-----0---0-3/4---0--------5|
 |------2-0-2---------------------|------3-0---0-----------0-------|
 |--------------------------------|--------------------------------|
 |--------------------------------|--------------------------------|
 

 |3-----3-6/7-3-----3-------------|--------------------------------|
 |--6-----------6-----6-3---------|------------------------7-8~~--8|
 |----5-----------5-------6\5-3---|5----3/4-0-----0------7---------|
 |------------------------------5-|--5--------3-0---0--7-----------|
 |--------------------------------|--------------------------------|
 |--------------------------------|--------------------------------|


 |6\7---7-8-10---10-8p7-----------|----8\7------------------3--3--3|
 |----------------------8-----6---|8-6-------3--------------3--3--3|
 |----7-------------------7/5---5-|------------3/4-0-0------3--3--3|
 |--------------------------------|--------------------3p0---------|
 |--------------------------------|--------------------------------|
 |--------------------------------|--------------------------------|


 |3-------------------------------|--------------------------------|
 |3-------------------------------|--------------------------------|
 |3\2-0---------------------------|--------------------------------|
 |------2-0-----0-----------------|--------------------------------|
 |----------1/2---1p0-------------|--------------------------------|
 |--------------------3-----------|--------------------------------|
     
Добавлено: 04.08.2013
Другие материалы по этой песне:
  • Аккорды и текст

Страница создана 04.08.2013
http://primanota.ru/tony-rice/gold-rush-chords.htm
Привет, Гость.
Предлагаем пройти революционный курс по гитаре.
Подарок от PrimaNota.Ru, забирай!