PrimaNota.ru - самый крупный в мире бесплатный архив песенных текстов, аккордов, табулатур и нот


Tony Marcus - Lone Star - таба, видео

Регистрация Запомнить меня
Войти через:  Facebook Google Twitter Vk Yandex Mail.ru

Tony Marcus - Lone Star - таба, видео

Печатать
Просмотров: 252
E ------------12-12---12---10----|
B -----10-13--------13--13----12-|
G -/12---------------------------|
D -------------------------------|
A -------------------------------|
E -------------------------------|

E ----------------------------------|
B -13-10--------------------/13~----|
G -------12-10-9 ----------------14-|
D ----------------12-11-10----------|
A ----------------------------------|
E ----------------------------------|

E -------------12-11-10---------12--12---11/12----|
B -------10-13-----------12\9-----13--13-11/12-13-|
G -12\11-----------------12\9---------------------|
D ------------------------------------------------|
A ------------------------------------------------|
E ------------------------------------------------|

E ------------------10/11-----12\11/12----11\10/11---|
B -13--10h13-10-13--10/11-13--13\12/13-13-11\10/11---|
G ------------------------------------------------12-|
D ---------------------------------------------------|
A ---------------------------------------------------|
E ---------------------------------------------------|

E -11-10-8-8-8---------------------------------------|
B -11-10-8-7-8--------------13--13-13h17p13\12-------|
G ---------------12-11-10-9-------------------12-----|
D -----------------------------------------------14--|
A ---------------------------------------------------|
E ---------------------------------------------------|

E -------------------------------------------------|
B 13-12-13-12-11-10-11-11p10-----------------------|
G --------------------------12p9--10-10p9-10p9-----|
D ---------------------------------------------12--|
A -------------------------------------------------|
E -------------------------------------------------|

E ---------------------------------------------------|
B ---------------------------------------------------|
G -10-10p9----9------12-12p9----11-11p9--------------|
D ---------12---12-----------12----------------12p10-|
A ---------------------------------------12p10-------|
E ---------------------------------------------------|

E ----------------------------------------|
B -------------------------12----------10-|
G --------------------12h13---------------|
D ----------12h14p12----------14-12-10----|
A -12h13h14-------------------------------|
E ----------------------------------------|

E ------------------------------------------|
B ------------------------------------------|
G ------------------------------------------|
D -10-9-7-----7h10p7-------10h13p10---10-13-|
A --------8h10------8h10h11---------11------|
E ------------------------------------------|

E ---8-------------------------------------|
B -----------------------------------------|
G -9---9--7h9p7h9-5h7p5h7p5---5------------|
D --------------------------5-----5--5h6-5-|
A ------------------------------7----------|
E -----------------------------------------|
Добавлено: 15.08.2015
Другие материалы по этой песне:
  • Аккорды и текст

Страница создана 15.08.2015
http://primanota.ru/tony-marcus/lone-star-chords.htm
Привет, Гость.
Предлагаем пройти революционный курс по гитаре.
Подарок от PrimaNota.Ru, забирай!