PrimaNota.ru - самый крупный в мире бесплатный архив песенных текстов, аккордов, табулатур и нот


Tony Iommi - Spell - текст песни, таба, видео

Регистрация Запомнить меня
Войти через:  Facebook Google Twitter Vk Yandex Mail.ru

Tony Iommi - Spell - текст песни, таба, видео

Печатать
Просмотров: 118
Tabbed By Dane Kelly


Here you go and almost 100% accurate tab of the spell listen to the song for timing this 
from the album named fused

enjoy, Dane Kelly

D#------------------------------------------------------------|
A#------------------------------------------------------------|
F#------------------------------------------------------------|
C#--0--7--8\5/8/7-3-0-2/5-p.m-2-p.m-3-p.m-2-p.m-1--0----------|
G#--0--7--8\5/8/7-3-0-2/5-p.m-2-p.m-3-p.m-2-p.m-1--0--ring----| x4
C#--0--7--8\5/8/7-3-0-2/5-p.m-2-p.m-3-p.m-2-p.m-1--0----------|

D#-----------------|
A#-----------------|
F#-----------------|
C#-----------------|
G#-----------------|
C#--0/7/8\5/7\3/5\2 x4

D#---------------------------------------------|
A#---------------------------------------------|
F#---------------------------------------------|               x4
C#--0--12--12\10--10\7--7-p.m-0--3--5\3\0------|p
G#--0--12--12\10--10\7--7-p.m-0--3--5\3\0------|p
C#--0--12--12\10--10\7--7-p.m-0--3--5\3\0------|p

D#---------------------------------------------------------------------|
A#---------------------------------------------------------------------|
F#---------------------------------------------------------------------|
C#--12--p.m-0-p.m-0--12--p.m-0-p.m-0--10--p.m-0-p.m-0--9-p.m-0-p.m-0---|
G#--12--p.m-0-p.m-0--12--p.m-0-p.m-0--10--p.m-0-p.m-0--9-p.m-0-p.m-0---|
C#--12--p.m-0-p.m-0--12--p.m-0-p.m-0--10--p.m-0-p.m-0--9-p.m-0-p.m-0---|

D#--------------------------------|
A#--------------------------------|
F#--------------------------------|
C#--8--p.m-0--8--0--2/3/5\2p0-----|  x2
G#--8--p.m-0--8--0--2/3/5\2p0-----|
C#--8--p.m-0--8--0--2/3/5\2p0-----|

D#------------------------------------------------------------------|
A#------------------------------------------------------------------|
F#------------------------------------------------------------------|
C#--0--7--8\5/8\7\3--p.m-0--2/7--p.m-2-p.m-3-pm-2-p.m-1--0----------|
G#--0--7--8\5/8\7\3--p.m-0--2/7--p.m-2-p.m-3-pm-2-p.m-1--0-- ring---|  x2
C#--0--7--8\5/8\7\3--p.m-0--2/7--p.m-2-p.m-3-pm-2-p.m-1--0----------|

D#----------------------|
A#----------------------|
F#----------------------|
C#----------------------|  X2
G#----------------------|
C#--0--7/8\5/7\3/5\2----|

D#-----------------------------------------------|
A#-----------------------------------------------|
F#-----------------------------------------------|
C#--0--12--12\10--10\8--p.m-0-p.m-2-p.m-3/5\2p0--|
G#--0--12--12\10--10\8--p.m-0-p.m-2-p.m-3/5\2p0--| x4
C#--0--12--12\10--10\8--p.m-0-p.m-2-p.m-3/5\2p0--|

D#-------------------------|
A#-------------------------|
F#-------------------------|
C#--8\7--p.m-0-2-3-5--8\7--|
G#--8\7--p.m-0-2-3-5--8\7--| x4
C#--8\7--p.m-0-2-3-5--8\7--|

D#--
A#--
F#--
C#--0--12--12\10--10\8--p.m-3/5\3\2p0--------|
G#--0--12--12\10--10\8--p.m-3/5\3\2p0--ring--| x4
C#--0--12--12\10--10\8--p.m-3/5\3\2p0--------|

D#--------------------------------------------------------------|
A#--------------------------------------------------------------|
F#--------------------------------------------------------------|
C#--12--p.m-0-p.m-0--12--p.m-0-p.m-0--10--p.m-0-p.m-0--9--p.m-0-|
G#--12--p.m-0-p.m-0--12--p.m-0-p.m-0--10--p.m-0-p.m-0--9--p.m-0-|
C#--12--p.m-0-p.m-0--12--p.m-0-p.m-0--10--p.m-0-p.m-0--9--p.m-0-|

D#--------------------------|
A#--------------------------|
F#--------------------------|
C#-p.m-0--8--p.m-0--2--3/5--| x2
G#-p.m-0--8--p.m-0--2--3/5--|
C#-p.m-0--8--p.m-0--2--3/5--|

D#--------------------------|
A#--------------------------|
F#--------------------------|
C#--------------------------| x2
G#--------------------------|
C#--0--7/8\5/7\2/5\2-0------| ring
Добавлено: 19.03.2012
Другие материалы по этой песне:
  • Аккорды и текст

Страница создана 19.03.2012
http://primanota.ru/tony-iommi/spell-chords.htm
Привет, Гость.
Предлагаем пройти революционный курс по гитаре.
Подарок от PrimaNota.Ru, забирай!