PrimaNota.ru - самый крупный в мире бесплатный архив песенных текстов, аккордов, табулатур и нот


Tony Cox - Smudges Boogie - таба, видео

Регистрация Запомнить меня
Войти через:  Facebook Google Twitter Vk Yandex Mail.ru

Tony Cox - Smudges Boogie - таба, видео

Печатать
Просмотров: 38
Уроки эстрадного вокала в Санкт-Петербурге
-------------------------------------------------------------------------------
Title: Smudge's Boogie Cat in the Washbasin) Artist: Tony Cox
Tabbed by: Andrew Penney

Tony now calls this 'Smudge's Boogie'. When I learned it from him many years
ago he just called it 'The Boogie', ut I prefer the title 'Cat in the
Washbasin', which is what he called it when I first heard him play it at a
folk festival concert. It is named after his cat. This is a fairly fast piece
played with a rocking boogie feel, driven along by the insistent bass thumb
picking.

Steel Guitar, Standard Tuning, Tempo = 186, slightly faster for 2nd section A

Check out the Guitar Pro version to see how it should sound
-------------------------------------------------------------------------------

Tab Legend
----------
h - hammer on
P - pull off
/ - slide up
> - accentuated note
x - dead note/string slap



   Intro
E |----------------------|----------------------|----------------------|
B |----------------------|----------------------|----------------------|
G |----------------------|----------------------|----------------------|
D |----------------------|----------------------|----------------------|
A |--0>-------0----------|--0--------0----------|--0>-------0----------|
E |----------------------|----------------------|----------------------|

                        A:Section
----------------------||----------------------|----------------------|
----------------------||----------------------|--------5-------------|
----------------------||-----------------2----|-/6-------------------|
----------------------||--------2----h4-------|----------------------|
--0--------0----------||--0--------0----------|--0--------0----------|
----------------------||----------------------|----------------------|


----------------------|----------------------|----------------------|
----------------------|--------5-------------|----------------------|
-----------------2----|-/6-------------------|-----------------2----|
--------2----h4-------|----------------------|--------2----h4-------|
--0--------0----------|--0--------0----------|--0--------0----------|
----------------------|----------------------|----------------------|


----------------------|----------------------|----------------------|
--------5--------8----|--------10-------10---|----------------------|
-/6--------------9----|--------11-------9----|----------------------|
----------------------|----------------------|-----------------0----|
--0--------0----------|--0--------0----------|--0--------0----------|
----------------------|----------------------|----------------------|


--8--------7----------|--5--------3----------|--2-------------------|----------|
--10-------8----------|--7-------------------|-----------6-----3----|----------|
----------------------|-----------4----------|--2--------5-----4----|----------|
--------0--------0----|--------0--------0----|--------0-------------|--0--0----|
----------------------|----------------------|----------------------|----------|
----------------------|----------------------|----------------------|----------|


----------------------|----------------------|----------------------|
----------------------|--------5-------------|----------------------|
-----------------2----|-/6-------------------|-----------------2----|
--------2----h4-------|----------------------|--------2----h4-------|
--0--------0----------|--0--------0----------|--0--------0----------|
----------------------|----------------------|----------------------|


----------------------|----------------------|----------------------|
--------5-------------|----------------------|----------------------|
-/6-------------------|--1--------2----------|--4-----6-------------|
----------------------|----------------------|-----------------0----|
--0--------0----------|--2--------4----------|--5-----7-------------|
-----------------0----|--------0--------0----|-----------0----------|

                                               Bridge
--2--------3----------|--5-----7-------------||----------------------|
----------------------|----------------------||----------------------|
--2--------4----------|--5-----7-------------||----------------------|
--------0--------0----|-----------0----------||--------2--------2----|
----------------------|----------------------||--0-------------------|
----------------------|----------------------||-----------3----------|


----------------------|-----------------0----|----------------------||
----------------------|----------------------|--------3-p0----------||
----------------------|----------h1----------|----------------------||
--------2--------2----|--------0-h2----------|----------------------||
----------------------|--0-------h2----------|-----------2----------||
--0--------3----------|-----------0----------|----------------------||

  B:Section
||----------------------|----------------------|----------------------|
||----------------------|--------5-------------|----------------------|
||-----------------2----|-/6-------------------|-----------------2----|
||--------2----h4-------|----------------------|--------2----h4-------|
||--0--------0----------|--0--------0----------|--0--------0----------|
||----------------------|----------------------|----------------------|


----------------------|----------------------|----------------------|
--------5-------------|----------------------|--------5--------8----|
-/6-------------------|-----------------2----|-/6--------------9----|
----------------------|--------2----h4-------|----------------------|
--0--------0----------|--0--------0----------|--0--------0----------|
----------------------|----------------------|----------------------|


----------------------|----------|----------------------|--------5-------------|
--------10-------10---|----------|----------------------|-----------------8----|
--------11-------9----|----------|-----------7-p5-------|----------------------|
----------------------|----------|--------7--------7----|----------------------|
--0--------0----------|--0--0----|--5--------5----------|--5--------5----------|
----------------------|----------|----------------------|----------------------|


--------5--------8----|--------7--------5----|--------3--------2----|
-----------------10---|--------8--------7----|----------------------|
----------------------|----------------------|--------4--------2----|
----------------------|--0--------0----------|--0--------0----------|
--5--------5----------|----------------------|----------------------|
----------------------|----------------------|----------------------|


----------------------|----------|----------------------|----------------------|
--------6--------3----|----------|----------------------|--------5-------------|
--------5--------4----|----------|-----------------2----|--/6-------------------|
--0--------0----------|--0--0----|--------2----h4-------|----------------------|
----------------------|----------|--0--------0----------|--0--------0----------|
----------------------|----------|----------------------|----------------------|


----------------------|----------------------|----------------------|
----------------------|--------5-------------|----------------------|
-----------------2----|-/6-------------------|--1--------2----------|
--------2----h4-------|----------------------|----------------------|
--0--------0----------|--0--------0----------|--2--------4----------|
----------------------|-----------------0----|--------0--------0----|


----------------------|--2--------3----------|--5-----7-------------||
----------------------|----------------------|----------------------||
--4-----6-------------|--2--------4----------|--5-----7-------------||
-----------------0----|--------0--------0----|-----------0----------||
--5-----7-------------|----------------------|----------------------||
-----------0----------|----------------------|----------------------||

  Bridge
||----------------------|----------------------|-----------------0----|
||----------------------|----------------------|----------------------|
||----------------------|----------------------|----------h1----------|
||--------2--------2----|--------2--------2----|--------0-h2----------|
||--0-------------------|----------------------|--0-------h2----------|
||-----------3----------|--0--------3----------|-----------0----------|

                        C:Section
----------------------||----------------------|----------------------|
--------3-p0----------||--2--------3----------|--5-----3-------------|
----------------------||----------------------|----------------------|
----------------------||--2--------4----------|--5-----4-------------|
-----------2-----0----||--------0--------0----|-----------0-----0----|
----------------------||----------------------|----------------------|


----------------------|----------------------|----------------------|
--2--------3----------|--5-----3-------------|--2--------3----------|
----------------------|----------------------|----------------------|
--2--------4----------|--5-----4-------------|--2--------4----------|
--------0--------0----|-----------0-----0----|--------0--------0----|
----------------------|----------------------|----------------------|


----------------------|----------------------|----------|----------------------|
--5-----7-------------|--8--------10----12---|----------|----------------------|
----------------------|----------------------|----------|-----------7-p5-------|
--5-----7-------------|--9--------11----12---|----------|--------7--------7----|
-----------0-----0----|--------0-------------|--0--0----|--5--------5----------|
----------------------|----------------------|----------|----------------------|


--------5-------------|--------5--------8----|--------7--------5----|
-----------------8----|-----------------10---|--------8--------7----|
----------------------|----------------------|----------------------|
----------------------|----------------------|--0--------0----------|
--5--------5----------|--5--------5----------|----------------------|
----------------------|----------------------|----------------------|


--------3--------2----|----------------------|----------|----------------------|
----------------------|--------6--------3----|----------|----------------------|
--------4--------2----|--------5--------4----|----------|-----------------2----|
--0--------0----------|--0--------0----------|--0--0----|--------2----h4-------|
----------------------|----------------------|----------|--0--------0----------|
----------------------|----------------------|----------|----------------------|


----------------------|----------------------|----------------------|
--------5-------------|----------------------|--------5-------------|
-/6-------------------|-----------------2----|-/6-------------------|
----------------------|--------2----h4-------|----------------------|
--0--------0----------|--0--------0----------|--0--------0----------|
----------------------|----------------------|----------------------|

                              String slap
----------------------|----------------------|-------|-------||
----------------------|----------------------|-------|-------||
----------------------|--------4--x-----2----|-------|--2----||
-----------------2----|-/6--------x-----0----|-------|--0----||
--------2----h4-------|-----------x----------|-------|-------||
--0--------0----------|--0--------x----------|-------|-------||

  Bridge
||----------------------|----------------------|-----------------0----|
||----------------------|----------------------|----------------------|
||----------------------|----------------------|-----------1----------|
||--------2--------2----|--------2--------2----|--------0--2----------|
||--0-------------------|----------------------|--0--------2----------|
||-----------3----------|--0--------3----------|-----------0----------|

     
----------------------||
--------3-p0----------||
----------------------||
----------------------||
-----------2----------||
----------------------||


Repeat A:Section once, slightly faster, tempo ~190


 Outro
|----------------------|----------------------|----------------------|
|----------------------|----------------------|----------------------|
|----------------------|----------------------|----------------------|
|--------2--------2----|--------2--------2----|----------------------|
|--0-------------------|----------------------|-----------------0----|
|-----------3----------|--2--------1----------|--0-----2--4----------|


----------------------|----------------------|----------------------|
----------------------|----------------------|----------------------|
----------------------|----------------------|----------------------|
--------2--------2----|--------2--------2----|----------------------|
----------------------|----------------------|-----------------0----|
-----------3----------|--2--------1----------|--0-----2--4----------|


----------------------|----------------------|----------------------|
----------------------|----------------------|----------------------|
----------------------|----------------------|----------------------|
--------2--------2----|--------2--------2----|----------------------|
--0-------------------|----------------------|-----------------0----|
-----------3----------|--2--------1----------|--0-----2--4----------|

        Sustain
--------3----|-------||
--------0----|-------||
--------2----|-------||
--------2----|-------||
--------0----|-------||
-------------|-------||

Добавлено: 12.06.2016
Вам также может быть интересно:
Другие материалы по этой песне:

Страница создана 18.06.2013
http://primanota.ru/tony-cox/smudges-boogie-chords.htm
Привет, Гость.
Предлагаем пройти революционный курс по гитаре.
Подарок от PrimaNota.Ru, забирай!