PrimaNota.ru - самый крупный в мире бесплатный архив песенных текстов, аккордов, табулатур и нот


Tonstartssbandht - Midnite Cobras - таба, видео

Регистрация Запомнить меня
Войти через:  Facebook Google Twitter Vk Yandex Mail.ru

Tonstartssbandht - Midnite Cobras - таба, видео

Печатать
Просмотров: 126
-------------------------------------------------------------------------------
                       Midnite Cobras - Tonstartssbandht
-------------------------------------------------------------------------------


Tuning: Standard

Intro:

e|---------------------------------------------------------------------------|
B|---------------------------------------------------------------------------|
G|---------------------------------------------------------------------------|
D|--------7-7-7-7-7---5-4-5-4-------5-------7-7-7-7-7-4-5-4-5-4-5-4-5--------|
A|--5-5-5-----------5---------5-5-5---5-5-5----------------------------------|
E|---------------------------------------------------------------------------|

The rest of the song:

e|---------------------------------------------------------------------------|
B|---------------------------------------------------------------------------|
G|---------------------------------------------------------------------------|
D|--------7-7-7-7-7-4-5-4-5-4-5-4-5------------------------------------------|
A|--5-5-5--------------------------------------------------------------------|
E|---------------------------------------------------------------------------|
Добавлено: 16.08.2015
Вам также может быть интересно:
Другие материалы по этой песне:
  • Аккорды и текст

Страница создана 16.08.2015
http://primanota.ru/tonstartssbandht/midnite-cobras-chords.htm
Привет, Гость.
Предлагаем пройти революционный курс по гитаре.
Подарок от PrimaNota.Ru, забирай!