PrimaNota.ru - самый крупный в мире бесплатный архив песенных текстов, аккордов, табулатур и нот


Tonstartssbandht - Alright - таба, видео

Регистрация Запомнить меня
Войти через:  Facebook Google Twitter Vk Yandex Mail.ru

Tonstartssbandht - Alright - таба, видео

Печатать
Просмотров: 39
-------------------------------------------------------------------------------
                             Alright - Tonstartssbandht
-------------------------------------------------------------------------------

I will post the rest of the song once I figure it out, if someone else wants to edit this or give it a shot,
that would be greatly appreciated

Tuning: Standard

e|---------------------------------------------------------------------------|
B|----3---3---3---3-----3-----3-----3-----3----------------------------------|
G|--2---2---2---2---2p0---2p0---2h4---2h4------------------------------------|
D|---------------------------------------------------------------------------|
A|---------------------------------------------------------------------------|
E|---------------------------------------------------------------------------|

e|---------------------------------------------------------------------------|
B|---------------------------------------------------------------------------|
G|---5h7----5h7--------------------------------------------------------------|
D|-------7------5------------------------------------------------------------|
A|---------------------------------------------------------------------------|
E|---------------------------------------------------------------------------|

e|---------------------------------------------------------------------------|
B|-------12------------------------------------------------------------------|
G|---9b------9-----7--9------------------------------------------------------|
D|--------------9------------------------------------------------------------|
A|---------------------------------------------------------------------------|
E|---------------------------------------------------------------------------|

e|---------------------------------------------------------------------------|
B|---------------------------------------------------------------------------|
G|---5h7----5h7--------------------------------------------------------------|
D|-------7------5------------------------------------------------------------|
A|---------------------------------------------------------------------------|
E|---------------------------------------------------------------------------|

e|---------------------------------------------------------------------------|
B|------10------12--10--7---------------------------12--15--12--10-----------|
G|-11b------11-------------9-7-7----4--7----11--14------------------11--9--7-|
D|-------------------------------7-------------------------------------------|
A|---------------------------------------------------------------------------|
E|---------------------------------------------------------------------------|

************************************

| /   slide up
| \   slide down
| h   hammer-on
| p   pull-off
| ~   vibrato
| +   harmonic
| x   Mute note
| b   Bend
| pb  Pre-bend
| br  Bend release
| pbr Pre-bend release
| brb Bend release bend

************************************
Добавлено: 30.08.2014
Вам также может быть интересно:
Другие материалы по этой песне:
  • Аккорды и текст

Страница создана 30.08.2014
http://primanota.ru/tonstartssbandht/alright-chords.htm
Привет, Гость.
Предлагаем пройти революционный курс по гитаре.
Подарок от PrimaNota.Ru, забирай!