PrimaNota.ru - самый крупный в мире бесплатный архив песенных текстов, аккордов, табулатур и нот


Tonight Alive - Revenge And Its Thrills - текст песни, таба, видео

Регистрация Запомнить меня
Войти через:  Facebook Google Twitter Vk Yandex Mail.ru

Tonight Alive - Revenge And Its Thrills - текст песни, таба, видео

Печатать
Просмотров: 184
Уроки эстрадного вокала в Санкт-Петербурге
Revenge And It's Thrills - Tonight Alive

Drop D

this is my first tab, so be nice! learnt this be ear, so its not 100% correct

watch my cover on youtube if you arent sure of the timings

http://www.youtube.com/watch?v=cgukjIz5z_8

i have quite a few Tonight Alive covers there too, so please check them out!


Intro


E|-12-0--------------|-------------------|-12-0-------------|-----------------||
B|------12-13-8-0-8-0|-7-0-10-0----------|-----12-13-8-0-8-0|-7-0-10-0--------||
G|-------------------|---------12-11-9-11|------------------|---------12-11---||
D|-------------------|-------------------|------------------|-----------------||
A|-------------------|-------------------|------------------|-----------------|| 
D|-------------------|-------------------|------------------|-----------------||


E|-12-0-------------|-------------------|-12-0-------------|-----------------||
B|-----12-13-8-0-8-0|-7-0-10-0----------|-----12-13-8-0-8-0|-7-0-10-0-----10-||
G|------------------|---------12-11-9-11|------------------|---------12-11---||
D|------------------|-------------------|------------------|-----------------||
A|------------------|-------------------|------------------|-----------------|| 
D|------------------|-------------------|------------------|-----------------||


E|-12-0--------------|-------------------|-12-0-------------|------------------||
B|------12-13-8-0-8-0|-7-0-10-0----------|-----12-13-8-0-8-0|-7-0-10-0---------||
G|-------------------|---------12-11-9-11|------------------|---------12-11-7-9||
D|-------------------|-------------------|------------------|------------------||
A|-------------------|-------------------|------------------|------------------|| 
D|-------------------|-------------------|------------------|------------------||


Verse - palm muted


E|-----------------|-----------------|-----------------|-----------------||
B|-----------------|-----------------|-----------------|-----------------||
G|-9---------------|-14--------------|-12--------------|-14--------------||
D|-9---------------|-14--------------|-12--------------|-14--------------||
A|-7---------------|-12--------------|-10--------------|-12--------------|| 
D|-----------------|-----------------|-----------------|-----------------||

repeat verse.



Chorus


E|-----------------|-----------------|-----------------|-----------------|-----------------||
B|-----------------|-----------------|-----------------|-----------------|-----------------||
G|-----------------|-----------------|-----------------|-----------------|-----------------||
D|-2-------5-------|-10---7--10---7--|-2------5--------|-10---7--10---7--|-5------9--------||
A|-2-------5-------|-10---7--10---7--|-2------5--------|-10---7--10---7--|-5------9--------||
D|-2-------5-------|-10---7--10---7--|-2------5--------|-10---7--10---7--|-5------9--------||


E|-12-0--------------|-------------------|-12-0-------------|------------------||
B|------12-13-8-0-8-0|-7-0-10-0----------|-----12-13-8-0-8-0|-7-0-10-0---------||
G|-------------------|---------12-11-9-11|------------------|---------12-11-7-9||
D|-------------------|-------------------|------------------|------------------||
A|-------------------|-------------------|------------------|------------------|| 
D|-------------------|-------------------|------------------|------------------||



2nd Verse


E|-----------------|-----------------|-----------------|-----------------||
B|-----------------|-----------------|-----------------|-----------------||
G|-----------------|-----------------|--12-----14------|-----------------||
D|-----------------|-----------------|-----------------|---pickslide-----||
A|-----------------|-----------------|--10-----12------|-----------------|| 
D|-----------------|-----------------|-----------------|-----------------||



E|-12-0-0-12-0-0-15-0-0-14-0-0|-14-0-14-0-14-0-0-14-12-0||
B|----------------------------|-------------------------||
G|----------------------------|-------------------------||
D|----------------------------|-------------------------||
A|----------------------------|-------------------------|| 
D|----------------------------|-------------------------||


E|-17-0-0-15-0-0-15-0-15-0|-17-0-0-17-0-0-21-0-0-19-0-0||
B|------------------------|----------------------------||
G|------------------------|----------------------------||
D|------------------------|----------------------------||
A|------------------------|----------------------------||
D|------------------------|----------------------------||




E|-19-0-19-0------------------|-14-15-14--14--------|-14-15-14--14-------|-----------------||
B|----------------------------|---------15--15-12-15|---------15--15-12--|-----------------||
G|----------------------------|---------------------|--------------------|-----------------||
D|----------------------------|---------------------|--------------------|-----------------||
A|----------------------------|---------------------|--------------------|-----------------|| 
D|----------------------------|---------------------|--------------------|-----------------||




repeat Chorus




Bridge



E|-12-0-12-0-12-0-12-0|--------------------|--------------------|------------------||
B|--------------------|-13-0-13-0-10-0-10-0|-12-0-12-0-12-0-12-0|-8-0-8-0-10-0-10-0||
G|--------------------|--------------------|--------------------|------------------||
D|--------------------|--------------------|--------------------|------------------||
A|--------------------|--------------------|--------------------|------------------|| 
D|--------------------|--------------------|--------------------|------------------||


repeat 4 times.



repeat intro.



Outro


E|-----------------|-----------------|-----------------|-----------------||
B|-----------------|-----------------|-----------------|-----------------||
G|-----------------|-----------------|-----------------|-----------------||
D|-2-------0-------|-7------------9--|-2-------0-------|-7------------9--||
A|-2-------0-------|-7------------9--|-2-------0-------|-7------------9--|| 
D|-2-------0-------|-7------------9--|-2-------0-------|-7------------9--||


E|-----------------|-----------------|-----------------|-----------------||
B|-----------------|-----------------|-----------------|-----------------||
G|-----------------|-----------------|-----------------|-----------------||
D|-5-------9-------|-2---------------|-----------------|-----------------||
A|-5-------9-------|-2---------------|-----------------|-----------------|| 
D|-5-------9-------|-2---------------|-----------------|-----------------||


http://www.youtube.com/watch?v=cgukjIz5z_8

Добавлено: 27.08.2013
Другие материалы по этой песне:

Страница создана 27.08.2013
http://primanota.ru/tonight-alive/revenge-and-its-thrills-chords.htm
Привет, Гость.
Предлагаем пройти революционный курс по гитаре.
Подарок от PrimaNota.Ru, забирай!