PrimaNota.ru - самый крупный в мире бесплатный архив песенных текстов, аккордов, табулатур и нот


Tonight Alive - Eject Eject Eject - таба, видео

Регистрация Запомнить меня
Войти через:  Facebook Google Twitter Vk Yandex Mail.ru

Tonight Alive - Eject Eject Eject - таба, видео

Печатать
Просмотров: 180
Уроки эстрадного вокала в Санкт-Петербурге
Tonight Alive
Eject Eject Eject
What Are You So Scared Of?
2011
Submitted by: paramore_fans@yahoo.com

Key: B

Tuning: Standard EADGBe

Chords used:
G#m -   466444
F# -    244322
E -     022100
F#/Bb - x143xx
Ebm -   x68876


Pluck the strings very fast!!


Synthesizer:
         G#m               Ebm
e|-4-------4-------|-2-------2-------|
B|---4---4---4---4-|---4---4---4---4-|
G|-----4-------4---|-----3-------3---|
D|-----------------|-----------------| x32
A|-----------------|-----------------|
E|-----------------|-----------------|

Guitar 1: Will enter at 5th time of synthesizer
         G#m               Ebm
e|-4-------4-------|-2-------2-------|
B|---4---4---4---4-|---4---4---4---4-|
G|-----4-------4---|-----3-------3---|
D|-----------------|-----------------| x24
A|-----------------|-----------------|
E|-----------------|-----------------|

Guitar 2: Will enter at 5th time of synthesizer
e|-11-----11-----11-----11-----9-----9-----9-----9-|
B|----0-0----0-0----0-0----0-0---0-0---0-0---0-0---|
G|-------------------------------------------------|
D|-------------------------------------------------| x24
A|-------------------------------------------------|
E|-------------------------------------------------|

Violin 1: will enter at 5th time of syntehsiezer
  G#m  F#/Bb  B   E
e|----|-----|---|---|
B|----|-----|---|---|
G|----|-----|---|---|
D|----|-----|---|-2-| x8
A|----|-1---|-2-|---|
E|-4--|-----|---|---|

Violin 2: will enter at 3nd time of Violin 1
  G#m  F#/Bb  B   E
e|-11-|--12-|-11-|-12-|
B|----|-----|----|----|
G|----|-----|----|----|
D|----|-----|----|----| x6
A|----|-----|----|----|
E|----|-----|----|----|

Violin 3: will enter at 4th time of Violin 1
       G#m       F#/Bb  B   E
e|-7----6-----4-|--2--|---|---|
B|----4----4----|-----|-4-|-0-|
G|--------------|-----|---|---|
D|--------------|-----|---|---| x4
A|--------------|-----|---|---|
E|--------------|-----|---|---|

Guitar 3: Ending, will enter after 4th time of Violin 3
e|-7---7---7---7---6---6---6---6-------------------9---9---6---6---|
B|---------------------------------9---9---9---9-------------------|
G|---8---8---8---8---8---8---8---8---8---8---8---8---8---8---8---8-|
D|-----------------------------------------------------------------| x4
A|-----------------------------------------------------------------|
E|-----------------------------------------------------------------|

Eject Eject Eject!!!
Добавлено: 08.08.2013
Другие материалы по этой песне:
  • Аккорды и текст

Страница создана 08.08.2013
http://primanota.ru/tonight-alive/eject-eject-eject-chords.htm
Привет, Гость.
Предлагаем пройти революционный курс по гитаре.
Подарок от PrimaNota.Ru, забирай!