PrimaNota.ru - самый крупный в мире бесплатный архив песенных текстов, аккордов, табулатур и нот


Tonight Alive - Breaking Entering - таба, видео

Регистрация Запомнить меня
Войти через:  Facebook Google Twitter Vk Yandex Mail.ru

Tonight Alive - Breaking Entering - таба, видео

Печатать
Просмотров: 115
Rhythm
Intro
Eb|-----------------|-----------------|-----------------|-----------------||
Bb|-----------------|-----------------|-----------------|-----------------||
Gb|-----------------|-----------------|-----------------|-----------------|| 2x
Db|-7---7---7---7---|-5---5---5---5---|-3---3---3---3---|-5---5---5---5---||
Ab|-7---7---7---7---|-5---5---5---5---|-3---3---3---3---|-5---5---5---5---|| 
Db|-7---7---7---7---|-5---5---5---5---|-3---3---3---3---|-5---5---5---5---||

Verse 1
Eb|12--12--12--12--12--12--12--12----|10--10--10--10--10--10--10--10--||
Bb|--10--10--10--10--10--10--10--10--|--12--12--12--12--12--12--12--12||
Gb|----------------------------------|--------------------------------||
Db|----------------------------------|--------------------------------||
Ab|----------------------------------|--------------------------------||
Db|----------------------------------|--------------------------------||
  
Eb|13--13--13--13--13--13--13--13----|10--10--10--10--10--10--10--10--||
Bb|--10--10--10--10--10--10--10--10--|--12--12--12--12--12--12--12--12||
Gb|----------------------------------|--------------------------------|| 2x
Db|----------------------------------|--------------------------------||
Ab|----------------------------------|--------------------------------||
Db|----------------------------------|--------------------------------||

Eb|----------------------------------||
Bb|----------------------------------||
Gb|---5~------4~---------------------||
Db|---3~------2~---------------------||
Ab|---3~------2~---------------------||
Db|---3~------2~---------------------||

Chorus 1
Eb|-----------------|-----------------|-----------------|-----------------||
Bb|-----------------|-----------------|-----------------|-----------------||
Gb|-----------------|-----------------|-----------------|-----------------||
Db|-7-7-----------7-|---7-7-----7-7---|-5-5-----------5-|---5-5-----5-5---||
Ab|-7-7-----------7-|---7-7-----7-7---|-5-5-----------5-|---5-5-----5-5---|| 
Db|-7-7-----------7-|---7-7-----7-7---|-5-5-----------5-|---5-5-----5-5---||

Eb|-----------------|---------------------|-----------------|-----------------||
Bb|-----------------|---------------------|-----------------|-----------------||
Gb|-----------------|---------------------|-----------------|-----------------||
Db|-10-10--------10-|--10-10-----10-10----|-3-3-3-3-3-3-3-3-|-5-5-5-5-5-------||
Ab|-10-10--------10-|--10-10-----10-10----|-3-3-3-3-3-3-3-3-|-5-5-5-5-5-------|| 
Db|-10-10--------10-|--10-10-----10-10----|-3-3-3-3-3-3-3-3-|-5-5-5-5-5-------||
                              Palm Mute     * * * * * * * *   * * * * *     
Eb|-----------------|-----------------|-----------------|-----------------||
Bb|-----------------|-----------------|-----------------|-----------------||
Gb|-----------------|-----------------|-----------------|-----------------||
Db|-7---7---7---7---|-7---7---7---7---|-5---5---5---5---|-5---5---5---5---||
Ab|-7---7---7---7---|-7---7---7---7---|-5---5---5---5---|-5---5---5---5---|| 
Db|-7---7---7---7---|-7---7---7---7---|-5---5---5---5---|-5---5---5---5---||

Eb|------------------|------------------|-----------------|-----------------||
Bb|------------------|------------------|-----------------|-----------------||
Gb|------------------|------------------|-----------------|-----------------||
Db|-10--10--10--10---|-10--10--10--10---|-3---3---3---3---|-3---3---3---3---||
Ab|-10--10--10--10---|-10--10--10--10---|-3---3---3---3---|-3---3---3---3---|| 
Db|-10--10--10--10---|-10--10--10--10---|-3---3---3---3---|-3---3---3---3---||

Verse 2 is SAME EXCEPT WITH GUITAR 3 ON SECOND TIME
Eb|-----------------|-----------------|-----------------|-----------------||
Bb|-----------------|-----------------|-----------------|-----------------||
Gb|-----------------|-----------------|-----------------|-----------------||
Db|-7-7-7-7-7-7-7-7-|-5-5-5-5-5-5-5-5-|-0-0-0-0-0-0-0-0-|-5-5-5-5-5-5-5-5-||
Ab|-7-7-7-7-7-7-7-7-|-5-5-5-5-5-5-5-5-|-0-0-0-0-0-0-0-0-|-5-5-5-5-5-5-5-5-|| 
Db|-7-7-7-7-7-7-7-7-|-5-5-5-5-5-5-5-5-|-0-0-0-0-0-0-0-0-|-5-5-5-5-5-5-5-5-||
PM * * * * * * * *   * * * * * * * *   * * * * * * * *   * * * * * * * *

Pre-Chorus
Eb|12-0-12-0-12-0-12-0-12-0-12-0-12-0-12-0|10-0-10-0-10-0-10-0-10-0-10-0-10-0-10-0||
Bb|---------------------------------------|---------------------------------------||
Gb|---------------------------------------|---------------------------------------||
Db|---------------------------------------|---------------------------------------||
Ab|---------------------------------------|---------------------------------------|| 
Db|---------------------------------------|---------------------------------------||
PALM MUTE ALL

Eb|5-0-5-0-5-0-5-0-5-0-5-0-5-0-5-0|12-0-12-0-12-0-12-0-10-0-10-0-10-0-10-0||
Bb|-------------------------------|---------------------------------------||
Gb|-------------------------------|---------------------------------------||
Db|-------------------------------|---------------------------------------||
Ab|-------------------------------|---------------------------------------||
Db|-------------------------------|---------------------------------------||
PALM MUTE ALL 

Chorus 2
Eb|-----------------|-----------------|-----------------|-----------------||
Bb|-----------------|-----------------|-----------------|-----------------||
Gb|-----------------|-----------------|-----------------|-----------------||
Db|-7---7---7---7---|-7---7---7---7---|-5---5---5---5---|-5---5---5---5---||
Ab|-7---7---7---7---|-7---7---7---7---|-5---5---5---5---|-5---5---5---5---|| 
Db|-7---7---7---7---|-7---7---7---7---|-5---5---5---5---|-5---5---5---5---||
                                                                    1st
Eb|------------------|------------------|-----------------||-----------------||
Bb|------------------|------------------|-----------------||-----------------||
Gb|------------------|------------------|-----------------||-----------------||
Db|-10--10--10--10---|-10--10--10--10---|-3---3---3---3---||-3---3---3---3---||   2x
Ab|-10--10--10--10---|-10--10--10--10---|-3---3---3---3---||-3---3---3---3---|| 
Db|-10--10--10--10---|-10--10--10--10---|-3---3---3---3---||-3---3---3---3---||
                                                                    2nd
                                                          ||-----------------||
                                                          ||-----------------||
                                                          ||-----------------||
                                                          ||-5---5---5---5---||
                                                          ||-5---5---5---5---||
                                                          ||-5---5---5---5---||

INTRO 2x                             

Bridge
Eb|-----------------|-----------------|-----------------|-------------------------||
Bb|-----------------|-----------------|-----------------|-------------------------||
Gb|-2-2-2-2-2-2-2-2-|-4-4-4-4-4-4-4-4-|-5-5-5-5-5-5-5-5-|-9--9--9--9--9--9--9--9--||
Db|-3-3-3-3-3-3-3-3-|-5-5-5-5-5-5-5-5-|-7-7-7-7-7-7-7-7-|10-10-10-10-10-10-10-10--||3x 
Ab|-----------------|-----------------|-----------------|-------------------------|| 
Db|-----------------|-----------------|-----------------|-------------------------||
PM  * * * * * * * *   * * * * * * * *   * * * * * * * *  *  *  *  *  *  *  *  *

Last Chorus
Eb|-----------------|-----------------|-------------------|-----------------||
Bb|-----------------|-----------------|-------------------|-----------------||
Gb|-9~--------------|-7~--------------|-12~---------------|-5~--------------||
Db|-7~--------------|-5~--------------|-10~---------------|-3~------3-------||
Ab|-7~--------------|-5~--------------|-10~---------------|-3~------3-------|| 
Db|-7~--------------|-5~--------------|-10~---------------|-3~------3-------||

Eb|-----------------|-----------------|-----------------|-----------------||
Bb|-----------------|-----------------|-----------------|-----------------||
Gb|-----------------|-----------------|-----------------|-----------------||
Db|-7---7---7---7---|-7---7---7---7---|-5---5---5---5---|-5---5---5---5---||
Ab|-7---7---7---7---|-7---7---7---7---|-5---5---5---5---|-5---5---5---5---|| 
Db|-7---7---7---7---|-7---7---7---7---|-5---5---5---5---|-5---5---5---5---||

Eb|------------------|------------------|-----------------|-----------------||
Bb|------------------|------------------|-----------------|-----------------||
Gb|------------------|------------------|-----------------|-----------------||
Db|-10--10--10--10---|-10--10--10--10---|-3---3---3---3---|-3---3---3---3---||
Ab|-10--10--10--10---|-10--10--10--10---|-3---3---3---3---|-3---3---3---3---|| 
Db|-10--10--10--10---|-10--10--10--10---|-3---3---3---3---|-3---3---3---3---||

OUTRO is Intro 4x
Intro
Eb|8-0-8-0-8-0-8-0-8-0-8-0-8-0-8-0|7-0-7-0-7-0-7-0-7-0-7-0-7-0-7-0||
Bb|-------------------------------|-------------------------------||
Gb|-------------------------------|-------------------------------||
Db|-------------------------------|-------------------------------||
Ab|-------------------------------|-------------------------------||
Db|-------------------------------|-------------------------------||
  
Eb|5-0-5-0-5-0-5-0-5-0-5-0-5-0-5-0|10-0-10-0-10-0-10-0-7-0-7-0-7-0-7-0-||
Bb|-------------------------------|------------------------------------||
Gb|-------------------------------|------------------------------------|| 2x
Db|-------------------------------|------------------------------------||
Ab|-------------------------------|------------------------------------||
Db|-------------------------------|------------------------------------||

Verse 1
Eb|8----8--------8---8--------|7---7-------7---7-------||
Bb|--10-----10-----10----10---|--8-----8-----8-----8---||
Gb|-------9----9-------9----9-|------9---9-------9---9-||
Db|---------------------------|------------------------||
Ab|---------------------------|------------------------||
Db|---------------------------|------------------------||
  
Eb|5---5--------5---5------|7---7--------7---7-------||
Bb|--6-----6------6-----6--|--8-----8------8-----8---||
Gb|------7---7--------7---7|------9---9--------9---9-|| 2x
Db|------------------------|-------------------------||
Ab|------------------------|-------------------------||
Db|------------------------|-------------------------||

Eb|----------------------------------||
Bb|----------------------------------||
Gb|---5~------4~---------------------||
Db|---3~------2~---------------------||
Ab|---3~------2~---------------------||
Db|---3~------2~---------------------||
Chorus
Eb|-----------------|-----------------|-----------------|-----------------||
Bb|-----------------|-----------------|-----------------|-----------------||
Gb|-14--14--14--14--|-14--14--14--14--|-16--16--16--16--|-16--16--16--16--||
Db|-x---x---x---x---|-x---x---x---x---|-x---x---x---x---|-x---x---x---x---||
Ab|-12--12--12--12--|-12--12--12--12--|-14--14--14--14--|-14--14--14--14--|| 
Db|-----------------|-----------------|-----------------|-----------------||

Eb|-----------------|-----------------|-----------------|-----------------||
Bb|-----------------|-----------------|-----------------|-----------------||
Gb|-17--17--17--17--|-17--17--17--17--|-10--10--10--10--|-12--12--12--12--||
Db|-x---x---x---x---|-x---x---x---x---|-x---x---x---x---|-x---x---x---x---||
Ab|-15--15--15--15--|-15--15--15--15--|-8---8---8---8---|-10--10--10--10--|| 
Db|-----------------|-----------------|-----------------|-----------------||

VERSE 2x
Pre-Chorus
Eb|8-0-8-0-8-0-8-0-8-0-8-0-8-0-8-0|7-0-7-0-7-0-7-0-7-0-7-0-7-0-7-0||
Bb|-------------------------------|-------------------------------||
Gb|-------------------------------|-------------------------------||
Db|-------------------------------|-------------------------------||
Ab|-------------------------------|-------------------------------||
Db|-------------------------------|-------------------------------||
PALM MUTE ALL

Eb|12-0-12-0-12-0-12-0-12-0-12-0-12-0-12-0|8-0-8-0-8-0-8-0-7-0-7-0-7-0-7-0||
Bb|---------------------------------------|-------------------------------||
Gb|---------------------------------------|-------------------------------||
Db|---------------------------------------|-------------------------------||
Ab|---------------------------------------|-------------------------------||
Db|---------------------------------------|-------------------------------||
PALM MUTE ALL 

CHORUS 2x
INTRO 2x
Bridge
Eb|12-0-12-0-12-0-12-0-12-0-12-0-12-0-12-0|7-0-7-0-7-0-7-0-7-0-7-0-7-0-7-0||
Bb|-------------------------------|---------------------------------------||
Gb|-------------------------------|---------------------------------------||
Db|-------------------------------|---------------------------------------||
Ab|-------------------------------|---------------------------------------||
Db|-------------------------------|---------------------------------------||
   PALM MUTE ALL
Eb|5-0-5-0-5-0-5-0-5-0-5-0-5-0-5-0|12-0-12-0-12-0-12-0-10-0-10-0-10-0-10-0-||
Bb|-------------------------------|----------------------------------------||
Gb|-------------------------------|----------------------------------------|| 3x
Db|-------------------------------|----------------------------------------||
Ab|-------------------------------|----------------------------------------||
Db|-------------------------------|----------------------------------------||
   PALM MUTE ALL
Last Chorus- This once then back to octave chorus
Eb|-----------------|-----------------|-------------------|-----------------||
Bb|-----------------|-----------------|-------------------|-----------------||
Gb|-9~--------------|-7~--------------|-12~---------------|-5~--------------||
Db|-7~--------------|-5~--------------|-10~---------------|-3~------3-------||
Ab|-7~--------------|-5~--------------|-10~---------------|-3~------3-------|| 
Db|-7~--------------|-5~--------------|-10~---------------|-3~------3-------||

OUTRO is INTRO 4x
Добавлено: 03.07.2013
Другие материалы по этой песне:
  • Аккорды и текст

Страница создана 03.07.2013
http://primanota.ru/tonight-alive/breaking-entering-chords.htm
Привет, Гость.
Предлагаем пройти революционный курс по гитаре.
Подарок от PrimaNota.Ru, забирай!