PrimaNota.ru - самый крупный в мире бесплатный архив песенных текстов, аккордов, табулатур и нот


Tonic - Stronger Than Mine - таба, видео

Регистрация Запомнить меня
Войти через:  Facebook Google Twitter Vk Yandex Mail.ru

Tonic - Stronger Than Mine - таба, видео

Печатать
Просмотров: 55
Band: Tonic
Song: Stronger Than Mine
Album: Sugar
Tuning: Standard, capo First Fret
Let all notes ring except PM

Intro/Chorus - 

e|---------||-0---0---0---0-0-----------|-3---3---3---3-3---------|
B|---------||-1---1---1---1-1-----------|-0---0---0---0-0---------|
G|-------0-||-0---0---0---0-0-----0-----|-0---0---0---0-0-------0-|
D|-----0---||-2---2---2---2-2---2-------|-0---0---0---0-0-----0---|
A|-1h2-----||-3---3---3---3-3-------1b2-|-2---2---2---2-2-1h2-----|
E|---------||-----------------3---------|-3---3---3---3-3---------|

e|-0---0---0---0-0-----------|
B|-1---1---1---1-1-----------|
G|-0---0---0---0-0-----0-----|
D|-2---2---2---2-2---2-------|
A|-3---3---3---3-3-------1b2-|
E|-----------------3---------|

Verse Bar 1:                         Bar 2 - accent chords
e|---------------------------------|-------------------------------|
B|---------------------------------|-------------------------------|
G|---------------------------------|-------------------------5-----|
D|---------------------------------|---------------------3---5-----|
A|---------------------------------|---------------------3---3-----|
E|-3-3-3-3-3-3-3-3-3-3-3-3-3-3-3-3-|-3-3-3-3-3-3-3-3-3-3-1---------|
  Slight PM on notes

play bar 1 2x

Verse Bar 5 - play 2x
e|---------------------------------|
B|---------------------------------|
G|---------5---------5---5---5---5-|
D|---------5---------5---5---5---5-|
A|-3-3-3-3-3-3-3-3-3-3-3-3-3-3-3-3-|
E|---------------------------------|
   Slight PM on notes

Play Verse Bar 1 & 2 to finish the 8 bar pattern.


When repeat happens, play these bars in order: 1,2,1,1,5,5,2,1


Prechorus - play 2x
  Rhythm (Emerson)
e|---------------------------------|---------------------------------|
B|---------------------------------|---------------------------------|
G|---------5---------5---5---5---5-|---------------------------------|
D|---------5---------5---5---5---5-|---------5---------5---5---5---5-|
A|-3-3-3-3-3-3-3-3-3-3-3-3-3-3-3-3-|---------5---------5---5---5---5-|
E|---------------------------------|-3-3-3-3-3-3-3-3-3-3-3-3-3-3-3-3-|
 |
 | Lead (Jeff)
e|-----------------3---------------|-----------------2-------3p2-----|
B|-------------1-------3-----------|---------0-----------3-------3---|
G|---------0-----------------------|---------------------------------|
D|-----2---------------------------|-----0---------------------------|
A|-3-------------------------------|---------------------------------|
E|---------------------------------|-3-------------------------------|



e|---------------------------------|---------------|
B|---------------------------------|---------------|
G|---------5---------5---5---5---5-|---------------|
D|---------5---------5---5---5---5-|---------5-----|
A|-3-3-3-3-3-3-3-3-3-3-3-3-3-3-3-3-|---------5-----|
E|---------------------------------|-3-3-3-3-3-3---|
 |
 | Lead (Jeff)
e|-----------------3---------------|---------------|
B|-------------1-------3-----------|---------0-----|
G|---------0-----------------------|---------------|
D|-----2---------------------------|-----0---------|
A|-3-------------------------------|---------------|
E|---------------------------------|-3-------------|



 Both Guitars (Lead only is noted by *)
e|-0-------*0---------|-(0)------------------------|
B|-1---------*1---*1--|-(1)------------------------|
G|-2-----------*2-----|-(2)---------------------0--|
D|-2-----*2-----------|-(2)-------------------0----|
A|-0---*0-------------|-(0)---------------1h2------|
E|--------------------|----------------------------|


Chorus - Play Intro 3x without the pick-up notes

End Chorus (Lead only is noted by *) 
e|-0----0--0--0----0--0--|-0------------*0---------|----
B|-1----1--1--1----1--1--|-3---------*3------------|----
G|-2----2--2--0----0--0--|-0-----*0--------*0------|----
D|-2----2--2--2----2--2--|-4--*4-------------------|----
A|-0----0--0--3----3--3--|-5-----------------------|----
E|-----------------------|-------------------------|-3--

AFter Chorus, Lead plays the last note shown for 8 beats 
while Rhythm plays Verse bars 1 & 2



Play verse as before

Lead plays (at 1:38) 
e|-0----------------|---------0------------|--------------------|----|
B|-----1------------|-----1-------1--------|---------0----------|----|
G|---------0--------|----------------0-----|-----4------2h0-----|----|
D|-------------2----|-3--------------------|-5------------------|----|
A|------------------|----------------------|--------------------|rest|
E|------------------|----------------------|--------------------|----|


Play prechorus
Play Chorus

then, play:

Break, play 3x:
e|-------------------------------|------------------------------|
B|-------------------------------|-----------------------1--1-1-|
G|-------------------------------|-----------------------0--0-0-|
D|-----------------------5--5-5--|-----------------------2--2-2-|
A|-2/3---2/3---2/3---2/3-5--5-5--|-2/3---2/3---2/3---3\2-3--3-3-|
E|-0h1---0h1---0h1---0h1-3--3-3--|-0h1---0h1---0h1---1p0-3--3-3-|

then:
e|-------------------------------|--------------------------|
B|-------------------------------|--------------------------|
G|-------------------------------|------------------------0-|
D|-----------------------5--5-5--|----------------------0---|
A|-2/3---2/3---2/3---2/3-5--5-5--|-2/3---2/3---2/3--1h2-----|
E|-0h1---0h1---0h1---0h1-3--3-3--|-0h1---0h1---0h1----------|


Solo
e|-------------------|------5-------3---|----------------------------|
B|-------------------|------------------|------6----8----6----8----6~|
G|--------------3----|---/5-----5\3-----|--/7-----7----7----7----7---|
D|---5-5----3h5---5--|------------------|----------------------------|
A|-------------------|------------------|----------------------------|
E|-------------------|------------------|----------------------------|

e|-----------------------|-3---3-------------------------|
B|-5--8p6----6h8--8____\-|-3---3-------------------------|
G|-7------7--------------|-5b7-----5b7-5b7~~-7r5p3-5p3---|
D|-----------------------|----------------------------5~-|
A|-----------------------|-------------------------------|
E|-----------------------|-------------------------------|

e|--------------------------|-------------------|----------|
B|----5--5-----3------------|-------------------|----------|
G|----5--5-3---3------------|--2h4----4-----5---|-7~-------|
D|-5---------5-----5--3h5-5-|-/5----5-------5---|----------|
A|--------------------------|-------------------|----------|
E|--------------------------|-------------------|----------|


Outro solo (3:03), Rhythm plays Intro Riff until a fade out
e|---------------------------|-----------------------------|
B|---------------------------|-----------------------------|
G|---------------------------|-----------------------------|
D|----5-5---5-3h5-5-3h5p3----|----3-5--5--5p3-5-5p3-5-3----|
A|-----------------------5p3-|-3h5----------------------5--|
E|---------------------------|-----------------------------|

then,

Lead repeat this line with slight changes until fade out
e|----------------------------|-----------------------------|
B|----------------------------|-----------------------------|
G|----------------------------|-----------------------------|
D|-----5-5---5-3h5-5-3h5p3----|----3-5--5--5p3-5-5p3-5-3----|
A|------------------------5p3-|-3h5----------------------5--|
E|-6b7------------------------|-----------------------------|

Добавлено: 03.07.2013
Другие материалы по этой песне:
  • Аккорды и текст

Страница создана 03.07.2013
http://primanota.ru/tonic/stronger-than-mine-chords.htm
Привет, Гость.
Предлагаем пройти революционный курс по гитаре.
Подарок от PrimaNota.Ru, забирай!