PrimaNota.ru - самый крупный в мире бесплатный архив песенных текстов, аккордов, табулатур и нот


Tonic - Open up Your Eyes - аккорды и текст, таба, бас-таба, видео

Регистрация Запомнить меня
Войти через:  Facebook Google Twitter Vk Yandex Mail.ru

Tonic - Open up Your Eyes - аккорды и текст, таба, бас-таба, видео

Печатать
Просмотров: 135
Уроки эстрадного вокала в Санкт-Петербурге
Open up Your Eyes
Tonic
		   Song       : Open Up Your Eyes (Hart)
Artist     : Tonic
Album      : Lemon Parade
By         : Jurgen Krombeen (valkenaer@hotmail.com)
URL        : http://people.zeelandnet.nl/snarfje

Last update: November 19th, 2002


 Drop D Tuning (DADGBE)

 D     xxx233
 Dsus4 xxx232
 Dsus2 xx0230


 [intro and verse riff (dist.)]

E |----------------------2---2-3-----------------------------2-3----------------
B |----------------------3---3-3-----------------------------3-3----------------
G |------0-----0---------2---2-2---------0-----0-------------2-2----------------
D |----2-----0-----------0---0-0-------2-----0---------------0-0----------------
A |--3-----2-----------------------023-----2------------------------------------
D |--------------3-0-----------------------------3-0----------------------------
     *       *       *       *       *       *       *       *

01 Taking Stones
02 Big Enough to drag me down
03 Where I am
04 People's voices make hollow sounds
05 Just be quiet
06 They'll go away


 [post-chorus riff (dist.)]

     Dsus4 D         Dsus2 D         Dsus4 D         Dsus2 D

D |--3-----2-----2---0-----2-----2---3-----2-----2---0-----2-----2--------------
A |----3-----3-----3---3-----3-----3---3-----3-----3---3-----3-----3------------
F |------2-----2---------2-----2---------2-----2---------2-----2----------------
C |-----------------------------------------------------------------------------
G |-----------------------------------------------------------------------------
D |-----------------------------------------------------------------------------
     *       *       *       *       *       *       *       *

09 Open up your eyes
08 Don't let your mind tell the story here
09 Open up your eyes
10 Just let me go     
Добавлено: 30.08.2013
Другие материалы по этой песне:
  • Аккорды и текст

Страница создана 05.05.2012
http://primanota.ru/tonic/open-up-your-eyes-chords.htm
Привет, Гость.
Предлагаем пройти революционный курс по гитаре.
Подарок от PrimaNota.Ru, забирай!