PrimaNota.ru - самый крупный в мире бесплатный архив песенных текстов, аккордов, табулатур и нот


Tonic - Drag me Down - текст песни, таба, видео

Регистрация Запомнить меня
Войти через:  Facebook Google Twitter Vk Yandex Mail.ru

Tonic - Drag me Down - текст песни, таба, видео

Печатать
Просмотров: 181
"Drag Me Down" -- Tonic

h  = hammer on
ho = hammer off
^  = bend
/  = slide up
\  = slide down

Intro:
(With heavy wah and chorus with a break of 5 or 6...maybe flanger, can't tell)
|--0--|
|--0--|
|--1--|
|--2--|
|--2--|
|--0--|

Riff 1:
|--x-0-0---x------x------x------x------x------x------x-----|
|--x-0-0---x------x------x------x------x------x------x-----|
|--x-1-1---x-9-9--x-8-8--x-9-9--x------x-9-9--x------x-9-9-|
|--x-2-2---x-9-9--x-8-8--x-9-9--x-6-6--x-9-9--x-7-7--x-9-9-|
|--x-2-2---x-7-7--x-6-6--x-7-7--x-6-6--x-7-7--x-7-7--x-7-7-|
|--x-0-0---x------x------x------x-4-4--x------x-5-5--x-----|

Verse:
(Strum the first two chords a few times each -- listen to CD)
|--------x-0-0--x------x-0-0--x-----|
|--------x-0-0--x------x-0-0--x-----|
|--9-----x-1-1--x-9-9--x-1-1--x-9-9-|
|--9--9--x-2-2--x-9-9--x-2-2--x-9-9-|
|--7--9--x-2-2--x-7-7--x-2-2--x-7-7-|
|-----7--x-0-0--x------x-0-0--x-----|

Pre-chorus:
(Strum each chord a few times -- listen to CD)
"I did everything I could for you..."
|--------------|
|--------------|
|--9-----6-----|
|--9--9--6--7--|
|--7--9--4--7--|
|-----7-----5--|

Chorus:
(Strum each chord a few times -- listen to CD)
|--0-----------|
|--0-----------|
|--1--9--6--4--|
|--2--9--6--4--|
|--2--7--4--2--|
|--0-----------|

Bridge/Solo:
(Play twice -- verse chords behind this)
|--------------------------------x-0-0--x------x-0-0--x------|
|--7-7h9-7h9-7h9-----------------x-0-0--x------x-0-0--x------|
|----------------9-8-8-8-9-9-9\--x-1-1--x-9-9--x-1-1--x-9-9--|
|--------------------------------x-2-2--x-9-9--x-2-2--x-9-9--|
|--------------------------------x-2-2--x-7-7--x-2-2--x-7-7--|
|--------------------------------x-0-0--x------x-0-0--x------|
Добавлено: 26.06.2013
Другие материалы по этой песне:
  • Аккорды и текст

Страница создана 30.07.2012
http://primanota.ru/tonic/drag-me-down-chords.htm
Привет, Гость.
Предлагаем пройти революционный курс по гитаре.
Подарок от PrimaNota.Ru, забирай!