PrimaNota.ru - самый крупный в мире бесплатный архив песенных текстов, аккордов, табулатур и нот


Tone Damli Aaberge - Then Comes You - таба, видео

Регистрация Запомнить меня
Войти через:  Facebook Google Twitter Vk Yandex Mail.ru

Tone Damli Aaberge - Then Comes You - таба, видео

Печатать
Просмотров: 125
Уроки эстрадного вокала в Санкт-Петербурге
-------------------------------------------------------------------------
THEN COMES YOU – Tone Damli
-------------------------------------------------------------------------
Tabbed by: Kengus

Standard tuning
Capo on fourth fret!

VERSE I
   Am                  Am/G   Am6/F#       B7           Em
e|-----------------------------------------------------------------------|
B|-------0h1------------------------1------------0------------0----------|
G|-----2-----2-------2-----2------2---2--------2---2--------0---0--------|
D|---2---------2---2-----2------2-------2----1-------1----2-------2----2-|
A|-0-------------0-------------------------2-----------------------------|
E|---------------------3------2-------------------------0------------0---|
            A                       Am                  Am/G   Am6/F#
e|-----------------------------------------------------------------------|
B|---0------------2-----------2-----------0h1------------------------1---|
G|-0---0--------2---2-------2---2-------2-----2-------2-----2------2---2-|
D|-------2----2-------2---2-------2---2---------2---2-----2------2-------|
A|----------0-----------0-----------0-------------0----------------------|
E|------------------------------------------------------3------2---------|
      B7           Em                        B7
e|-----------------------------------------------------------------------|
B|----------0------------0------------0------------0-----0---------------|
G|--------2---2--------0---0--------0---0--------2---2-------------------|
D|-2----1-------1----2-------2----2-------2----1-------1-----------------|
A|----2--------------------------------------2---------------------------|
E|-----------------0------------0----------------------------------------|

PRE-CHORUS
   Cmaj7                    B7                       Am           Em
e|-----------------------------------------------------------------------|
B|-------0-----------0------------0-----------0------------1------------0|
G|-----0---0-------0---0--------2---2-------2---2--------2---2--------0--|
D|---2-------2---2-------2----1-------1---1-------1----2-------2----2----|
A|-3-----------3------------2-----------2------------0-------------------|
E|----------------------------------------------------------------0------|
        D/F#
e|-------------------------------|
B|------------3-----------3------|
G|-0--------2---2-------2---2----|
D|---2----0-------0---0-------0--|
A|-------------------------------|
E|------2-----------2------------|

CHORUS
   G                        B7omit3                  Em          Em7/D
e|-------3-----------3------------2-----------2------------0-----------0-|
B|-----0---0-------0---0--------0---0-------0---0--------0---0-------0---|
G|---0-------0---0-------0----2-------2---2-------2----0-------0---0-----|
D|-----------------------------------------------------------------------|
A|--------------------------2-----------2------------------------5-------|
E|-3-----------3-------------------------------------0-------------------|
       C#m7#5      Asus2        Am                Am/G   Am6/F#       B7
e|-----------0-----------0-----------------------------------------------|
B|-0-------0---0-------0---0----------1------------------------1---------|
G|---0---2-------2---2-------2------2---2-------2-----2------2---2-------|
D|--------------------------------2-------2---2-----2------2-------2----1|
A|-----4-----------0------------0-----------0-------------------------2--|
E|------------------------------------------------3------2---------------|

e|---------2--|
B|---0--------|
G|-2---2------|
D|-------1----|
A|------------|
E|------------|

VERSE II
   Am                  Am/G   Am6/F#       B7           Em
e|-----------------------------------------------------------------------|
B|-------0h1------------------------1------------0------------0----------|
G|-----2-----2-------2-----2------2---2--------2---2--------0---0--------|
D|---2---------2---2-----2------2-------2----1-------1----2-------2----2-|
A|-0-------------0-------------------------2-----------------------------|
E|---------------------3------2-------------------------0------------0---|
            A                       Am                  Am/G   Am6/F#
e|-----------------------------------------------------------------------|
B|---0------------2-----------2-----------0h1------------------------1---|
G|-0---0--------2---2-------2---2-------2-----2-------2-----2------2---2-|
D|-------2----2-------2---2-------2---2---------2---2-----2------2-------|
A|----------0-----------0-----------0-------------0----------------------|
E|------------------------------------------------------3------2---------|
      B7           Em                        B7
e|-----------------------------------------------------------------------|
B|----------0------------0------------0------------0-----------0---------|
G|--------2---2--------0---0--------0---0--------2---2-------2---2-------|
D|-2----1-------1----2-------2----2-------2----1-------1---1-------1-----|
A|----2--------------------------------------2-----------2---------------|
E|-----------------0------------0----------------------------------------|

PRE-CHORUS
   Cmaj7                    B7                       Am           Em
e|-----------------------------------------------------------------------|
B|-------0-----------0------------0-----------0------------1------------0|
G|-----0---0-------0---0--------2---2-------2---2--------2---2--------0--|
D|---2-------2---2-------2----1-------1---1-------1----2-------2----2----|
A|-3-----------3------------2-----------2------------0-------------------|
E|----------------------------------------------------------------0------|
        D/F#        G5
e|-------------------------------|
B|------------3-----------3------|
G|-0--------2---2-------2---2----|
D|---2----0-------0---0-------0--|
A|-------------------------------|
E|------2-----------3------------|

CHORUS (same as before)

BRIDGE
   Dsus2                    Gmaj7                    Gm           C7
e|-------0-----------0---------------------------------------------------|
B|-----3---3-------3---3----------3-----------3------------3------------5|
G|---2-------2---2-------2------4---4-------4---4--------3---3--------3--|
D|-0-----------0--------------4-------4---4-------4----5-------5----5----|
A|----------------------------------------------------------------3------|
E|--------------------------3-----------3------------3-------------------|
        Fmaj7        Bbmaj7       Em           A            Dmaj7
e|----------------------------------------------------------------2------|
B|------------1------------3------------0------------2----------2---2----|
G|-3--------2---2--------2---2--------0---0--------2---2------2-------2--|
D|---5----2-------2----3-------3----2-------2----2-------2--0------------|
A|-------------------1-------------------------0-------------------------|
E|------1-------------------------0--------------------------------------|
   Bm11         Am             Em           D/F#
e|-------0-----------------------------------------------------------|
B|-----3---3----------0h1------------0------------3-----------3------|
G|---2-------2------2-----2--------0---0--------2---2-------2---2----|
D|----------------2---------2----2-------2----0-------0---0-------0--|
A|-2------------0----------------------------------------------------|
E|-----------------------------0------------2-----------2------------|

CHORUS
   G                        B7omit3                  Em          Em7/D
e|-------3-----------3------------2-----------2------------0-----------0-|
B|-----0---0-------0---0--------0---0-------0---0--------0---0-------0---|
G|---0-------0---0-------0----2-------2---2-------2----0-------0---0-----|
D|-----------------------------------------------------------------------|
A|--------------------------2-----------2------------------------5-------|
E|-3-----------3-------------------------------------0-------------------|
       C#m7#5      Asus2        Am                Am/G   Am6/F#       B7
e|-----------0-----------0-----------------------------------------------|
B|-0-------0---0-------0---0----------1------------------------1---------|
G|---0---2-------2---2-------2------2---2-------2-----2------2---2-------|
D|--------------------------------2-------2---2-----2------2-------2----1|
A|-----4-----------0------------0-----------0-------------------------2--|
E|------------------------------------------------3------2---------------|

e|----------2--|
B|---0------0--|
G|-2---2----2--|
D|-------1--1--|
A|----------2--|
E|-------------|

OUTRO
   Am                  Am/G   Am6/F#        B7
e|---------------------------------------------|
B|-------0h1------------------------1-------0--|
G|-----2-----2-------2-----2------2---2-----2--|
D|---2---------2---2-----2------2-------2---1--|
A|-0-------------0--------------------------2--|
E|---------------------3------2----------------|

WITH LYRICS:

VERSE I
Am      Am/G  Am6/F# B7         Em
    Always on  time, never too late
           A                                  Am
Gone for a while, but you're always worth the wait
                   Am/G    Am6/F#
Your presence makes colours change
     B7                  Em     B7
I'm happy you're finally back, again

PRE-CHORUS
Cmaj7          B7
  After summer must come fall
Am       Em          D/F#
Winter's through and then comes you and 

CHORUS
G                   B7omit3
Raindrops bounce back to the sky
Em       Em7/D   C#m7#5    Asus2
Sun goes down and then you rise
    Am             Am/G       Am6/F#     B7
I'm living my dream,   so I'm dreaming about life

VERSE II
Am              Am/G  Am6/F#            B7          Em
    Temperature's ri-----sing with your warm embrace
                     A                  Am
I'm soaking up every   inch of your face
           Am/G   Am6/F#
My worries seem to disappear
B7                   Em                        B7
    Every time you come near, every time you come near

PRE-CHORUS
Cmaj7          B7
  After summer must come fall
Am       Em          D/F#       G5
Winter's through and then comes you and 

CHORUS
G                   B7omit3
Raindrops bounce back to the sky
Em       Em7/D   C#m7#5    Asus2
Sun goes down and then you rise
    Am             Am/G       Am6/F#     B7
I'm living my dream,   so I'm dreaming about life

BRIDGE
Dsus2                       Gmaj7
       The time has come for you to leave
Gm     C7                  Fmaj7      Bbmaj7
     I wish that you could stay right here
Em       A        Dmaj7  Bm11       Am  Em     D/F#
     But lucky for me, I know, that you will be back next year

CHORUS
     G                   B7omit3
When raindrops bounce back to the sky
Em       Em7/D   C#m7#5    Asus2
Sun goes down and then you rise
    Am             Am/G       Am6/F#     B7
I'm living my dream,   so I'm dreaming about life

OUTRO
Am   Am/G   Am6/F#     B7
                   I'm dreaming about life.

=========================================================================
Comment, rate, appreciate!
Добавлено: 26.02.2012
Вам также может быть интересно:
Другие материалы по этой песне:
  • Аккорды и текст

Страница создана 26.02.2012
http://primanota.ru/tone-damli-aaberge/then-comes-you-chords.htm
Привет, Гость.
Предлагаем пройти революционный курс по гитаре.
Подарок от PrimaNota.Ru, забирай!