PrimaNota.ru - самый крупный в мире бесплатный архив песенных текстов, аккордов, табулатур и нот


Tomska - The Horse Theme - таба, бас-таба, видео

Регистрация Запомнить меня
Войти через:  Facebook Google Twitter Vk Yandex Mail.ru

Tomska - The Horse Theme - таба, бас-таба, видео

Печатать
Просмотров: 102
Уроки эстрадного вокала в Санкт-Петербурге
-------------------------------------------------------------------------------
  The HORSE Theme (as in HORSE [https://www.youtube.com/watch?v=L46iCN6MBFM])
-------------------------------------------------------------------------------

tabbed by: Hans Lindig
e-mail: hali271298@gmail.com

composer: Jonti Picking             (https://www.youtube.com/user/mrweebl)
video by: Thomas "TomSka" Ridgewell (https://www.youtube.com/user/TomSka)

I've also made a bass tab, be sure to look at that too! Without the bass accompaniment, it sound a bit...
empty.

Tuning: E Standard
Time signature: 4/4
Tempo: ~150BPM

A dot over a note means it's played staccato. The letters over the notes and rests stand for the length:
W  - whole
H  - half
Q  - quarter
E  - eighth
S  - sixteenth
E. - dotted eighth
The rest should be clear, I guess.

Enjoy video, song and tabs and don't hesitate to comment and/or rate!

Guitar 1:                                      .  .
   E  E E  S  E  E. E  E   E  E E  S  E  Q..   E  E  E  S  E  E. E  E
e|-----------------------|-------------------|-------------------------|
B|------15-13-12---------|------15-13-12-----|-------15-13-12----------|
G|-12------------14-12---|-12----------------|-12-12----------14-12-14-|
D|-----------------------|-------------------|-------------------------|
A|-----------------------|-------------------|-------------------------|
E|-----------------------|-------------------|-------------------------|

   E  E  E  S  E  Q..   E S  S  E  E  E  S  E  E.   E  E  E  E  Q  S  S  E
e|--------------------|---12-14-14----15-14-12----|-------------------------|
B|-12-12-12-----------|------------15----------15-|-15-13-12----------------|
G|----------14-12-----|---------------------------|----------14-14-14-12-14-|
D|--------------------|---------------------------|-------------------------|
A|--------------------|---------------------------|-------------------------|
E|--------------------|---------------------------|-------------------------|

   .  .    .        .          .                .
   E. E. E E. E  S  E    E  S  E  E. E E  S  S  E
e|---------------------|---------------------------|
B|---------------12----|---------------------12----|
G|-12-12---12-12----12-|-12----12-12---12-12----12-|
D|---------------------|----12---------------------|
A|---------------------|---------------------------|
E|---------------------|---------------------------|

Guitar 2:
   H. E  E    H E E  S  E  S    S  Q.. Q E  E    H E E  S  E  S
e|----------|-----------------|----------------|-----------------|
B|----13-12-|-----12-10-12-12-|(12)------13-12-|-----12-10-12-12-|
G|----------|-----------------|----------------|-----------------|
D|----------|-----------------|----------------|-----------------|
A|----------|-----------------|----------------|-----------------|
E|----------|-----------------|----------------|-----------------|

   S  H...   W   H. E  E    H E E  S  E  S    E  E  E  E  E. E  E.
e|---------|---|----------|-----------------|-------15-17-19-17-15-|
B|(12)-----|---|----13-12-|-----12-10-12-12-|-15-17----------------|
D|---------|---|----------|-----------------|----------------------|
G|---------|---|----------|-----------------|----------------------|
A|---------|---|----------|-----------------|----------------------|
E|---------|---|----------|-----------------|----------------------|

                       .  .  .  .             .  .  .  .
   E  E  E  E  E  Q.   E  E  E  E  E. E  E.   E  E  E  E  E  Q.
e|-------15-17-19----|-------15-17-19-17-15-|-------15-17-19----|
B|-15-17-------------|-15-17----------------|-15-17-------------|
G|-------------------|----------------------|-------------------|
D|-------------------|----------------------|-------------------|
A|-------------------|----------------------|-------------------|
E|-------------------|----------------------|-------------------|

                                               .  .  .    .  .  .
   E E  E  E  E. E  E.   E E  E  E  E. E  E.   E  E  E  E E  E  E  E
e|---19-19-19-17-17-17-|---15-15-15-17-17-17-|-------15---------15---|
B|---------------------|---------------------|-15-17------15-17------|
G|---------------------|---------------------|-----------------------|
D|---------------------|---------------------|-----------------------|
A|---------------------|---------------------|-----------------------|
E|---------------------|---------------------|-----------------------|

   .  .
   E  E  E  S E  Q..
e|-------15---15-----|
B|-15-17-------------|
G|-------------------|
D|-------------------|
A|-------------------|
E|-------------------|

Song structure:
Both riffs start simultaneously and repeat all over again until you get mentally deranged
(if you aren't yet).
Добавлено: 28.04.2016
Вам также может быть интересно:
Другие материалы по этой песне:
  • Аккорды и текст

Страница создана 28.04.2016
http://primanota.ru/tomska/horse-theme-chords.htm
Привет, Гость.
Предлагаем пройти революционный курс по гитаре.
Подарок от PrimaNota.Ru, забирай!