PrimaNota.ru - самый крупный в мире бесплатный архив песенных текстов, аккордов, табулатур и нот


Tomoyasu Hotei - Forest Song - таба, видео

Регистрация Запомнить меня
Войти через:  Facebook Google Twitter Vk Yandex Mail.ru

Tomoyasu Hotei - Forest Song - таба, видео

Печатать
Просмотров: 137
Tomoyasu Hotei
Forest Song (Theme of Heishiro)
(From the "Samurai Fiction" Soundtrack)
Tabbed by kayoo~ (karlhutter@hotmail.com)
Have fun playing :)

Standard Tuning EADGBe

5. = pluck| /5 = slide up| 5\ = slide down| 6^= bend| 5ho7 = hammer on| 7po5 = pull off|
8r = let ring| 8~ = vibrato| 9~~ wide vibrato

     --~~------|
 ~----  -------|
~~---ikkyu-----|
    ------ ~ --|
 ----- ---~----|
    ~~~--------|


|Intro (palm muted)                  |
|1st bar 3x           |              |
|---------------------|--------------|-----------------------------------|
|---------------------|--------------|-----------------------------------|
|---------------------|--------------|-----14-12-10-9-10-12-9\-----------|
|---8.---8.---7.---7.-|--5.---5.--7--|-/10----------------------10----10-|
|------8----7---------|-----3----(5)-|-----------------------------12----|
|-6--------------5----|3-------------|-----------------------------------|


|---------------------------|------------------------------------|--------------------|
|---------------------------|------------------------------------|--------------------|
|-----14~-12-10-9-10-12-14~-|-----14~-12-10-9-10-12-9\-----------|----15-14-12-10-9~\-|
|-/10-----------------------|-/10----------------------10----10\-|-12-----------------|
|---------------------------|-----------------------------12-----|--------------------|
|---------------------------|------------------------------------|--------------------|


|-----------------------------------------|------------------------------|
|-----------------------------------------|------------------------------|
|-----14~-12-10-9-10-12-9-----------------|-----14-12-10-9-10-/17\-/14~--|
|-/10---------------------10----10/12\10\-|-/10--------------------------|
|----------------------------12-----------|------------------------------|
|-----------------------------------------|------------------------------|


|----------------------------------------|-------------------------------|
|----------------------------------------|-------------------------------|
|-----14-12-10-9-10-12-9-----------------|------15-14-12-10-9~-11-12-14--|
|-/10---------------------10----10-12-14-|15-12--------------------------|
|----------------------------12----------|-------------------------------|
|----------------------------------------|-------------------------------|

|---------------------------|-17po13-------13\--------------------------------------|
|-------18-17---------------|--------15------------15-13----------------------------|
|15~----------19-17~-14.-17.|-----------14-----12^-------14-9/10\9\5/7/10-----------|
|----15---------------------|---------------------------------------------10----10\-|
|---------------------------|------------------------------------------------12-----|
|---------------------------|-------------------------------------------------------|


|-------------------------------17ho18po17\13-------|-----------------------------------|
|------------------15/22-18-------------------------|---18----17----17----15----8r\-----|
|-15po14ho15-14-15----------19~---------------15-10-|15----15----12----12----12r--\-----|
|---------------------------------------------------|-------------------------------/10-|
|---------------------------------------------------|-----------------------------------|
|---------------------------------------------------|-----------------------------------|


|------------------------------------|------------------------------12-13-12----|
|------------------------------------|---------------------------------------13-|
|14-12-10-9-10-12-9\--------------14-|14~\-12-10-9-10-12-14~-/14-17-------------|
|--------------------10----10-/10----|------------------------------------------|
|-----------------------12-----------|------------------------------------------|
|------------------------------------|------------------------------------------|


|17-15-13-12-13-15-12-----------|------------------------|------------------------17po13-|
|---------------------13----13~-|------------------------|--------------------15~--------|
|------------------------14-----|-15-14-12-10-12-9~~-7-5-|7-9ho10/12/14-17-14------------|
|-------------------------------|------------------------|-------------------------------|
|-------------------------------|------------------------|-------------------------------|
|-------------------------------|------------------------|-------------------------------|


|---12ho13po12-----------------13-|-10--------------------------------- ~
|15------------15-13-11-10~-13----|------------~~---------------------- ~
|---------------------------------|----- cicadas & a gentle breeze ~~-- ~
|---------------------------------|-----~~~---------------------------- ~
|---------------------------------|-----~       ----------------------- ~
|---------------------------------|----- ------------------------------ ~
Добавлено: 12.05.2012
Вам также может быть интересно:
Другие материалы по этой песне:
  • Аккорды и текст

Страница создана 12.05.2012
http://primanota.ru/tomoyasu-hotei/forest-song-chords.htm
Привет, Гость.
Предлагаем пройти революционный курс по гитаре.
Подарок от PrimaNota.Ru, забирай!